  0
SECTION
  2
HEADER
  9
$ACADVER
  1
AC1015
  9
$ACADMAINTVER
 70
     6
  9
$DWGCODEPAGE
  3
ANSI_1254
  9
$INSBASE
 10
0.0
 20
0.0
 30
0.0
  9
$EXTMIN
 10
0.0
 20
0.0
 30
0.0
  9
$EXTMAX
 10
279.4
 20
215.9
 30
0.0
  9
$LIMMIN
 10
0.0
 20
0.0
  9
$LIMMAX
 10
279.4
 20
215.9
  9
$ORTHOMODE
 70
     0
  9
$REGENMODE
 70
     1
  9
$FILLMODE
 70
     1
  9
$QTEXTMODE
 70
     0
  9
$MIRRTEXT
 70
     1
  9
$LTSCALE
 40
1.0
  9
$ATTMODE
 70
     1
  9
$TEXTSIZE
 40
3.5
  9
$TRACEWID
 40
1.0
  9
$TEXTSTYLE
  7
Standard
  9
$CLAYER
  8
0
  9
$CELTYPE
  6
ByLayer
  9
$CECOLOR
 62
   256
  9
$CELTSCALE
 40
1.0
  9
$DISPSILH
 70
     0
  9
$DIMSCALE
 40
1.0
  9
$DIMASZ
 40
3.5
  9
$DIMEXO
 40
1.0
  9
$DIMDLI
 40
3.75
  9
$DIMRND
 40
0.0
  9
$DIMDLE
 40
0.0
  9
$DIMEXE
 40
1.0
  9
$DIMTP
 40
0.0
  9
$DIMTM
 40
0.0
  9
$DIMTXT
 40
3.5
  9
$DIMCEN
 40
2.5
  9
$DIMTSZ
 40
0.0
  9
$DIMTOL
 70
     0
  9
$DIMLIM
 70
     0
  9
$DIMTIH
 70
     1
  9
$DIMTOH
 70
     1
  9
$DIMSE1
 70
     0
  9
$DIMSE2
 70
     0
  9
$DIMTAD
 70
     1
  9
$DIMZIN
 70
     0
  9
$DIMBLK
  1

  9
$DIMASO
 70
     1
  9
$DIMSHO
 70
     1
  9
$DIMPOST
  1

  9
$DIMAPOST
  1

  9
$DIMALT
 70
     0
  9
$DIMALTD
 70
     3
  9
$DIMALTF
 40
0.0393700787
  9
$DIMLFAC
 40
1.0
  9
$DIMTOFL
 70
     1
  9
$DIMTVP
 40
0.0
  9
$DIMTIX
 70
     0
  9
$DIMSOXD
 70
     0
  9
$DIMSAH
 70
     0
  9
$DIMBLK1
  1

  9
$DIMBLK2
  1

  9
$DIMSTYLE
  2
ISO-25
  9
$DIMCLRD
 70
     0
  9
$DIMCLRE
 70
     0
  9
$DIMCLRT
 70
     0
  9
$DIMTFAC
 40
1.0
  9
$DIMGAP
 40
1.524
  9
$DIMJUST
 70
     0
  9
$DIMSD1
 70
     0
  9
$DIMSD2
 70
     0
  9
$DIMTOLJ
 70
     0
  9
$DIMTZIN
 70
     0
  9
$DIMALTZ
 70
     0
  9
$DIMALTTZ
 70
     0
  9
$DIMUPT
 70
     0
  9
$DIMDEC
 70
     2
  9
$DIMTDEC
 70
     2
  9
$DIMALTU
 70
     2
  9
$DIMALTTD
 70
     3
  9
$DIMTXSTY
  7
Standard
  9
$DIMAUNIT
 70
     0
  9
$DIMADEC
 70
     2
  9
$DIMALTRND
 40
0.0
  9
$DIMAZIN
 70
     0
  9
$DIMDSEP
 70
    44
  9
$DIMATFIT
 70
     3
  9
$DIMFRAC
 70
     0
  9
$DIMLDRBLK
  1

  9
$DIMLUNIT
 70
     2
  9
$DIMLWD
 70
    -2
  9
$DIMLWE
 70
    -2
  9
$DIMTMOVE
 70
     0
  9
$LUNITS
 70
     2
  9
$LUPREC
 70
     2
  9
$SKETCHINC
 40
1.0
  9
$FILLETRAD
 40
10.0
  9
$AUNITS
 70
     0
  9
$AUPREC
 70
     2
  9
$MENU
  1
.
  9
$ELEVATION
 40
0.0
  9
$PELEVATION
 40
0.0
  9
$THICKNESS
 40
0.0
  9
$LIMCHECK
 70
     0
  9
$CHAMFERA
 40
0.0
  9
$CHAMFERB
 40
0.0
  9
$CHAMFERC
 40
0.0
  9
$CHAMFERD
 40
0.0
  9
$SKPOLY
 70
     0
  9
$TDCREATE
 40
2458985.721478843
  9
$TDUCREATE
 40
2458985.596478843
  9
$TDUPDATE
 40
2458985.721479097
  9
$TDUUPDATE
 40
2458985.596479097
  9
$TDINDWG
 40
0.0000000116
  9
$TDUSRTIMER
 40
0.0000000116
  9
$USRTIMER
 70
     1
  9
$ANGBASE
 50
0.0
  9
$ANGDIR
 70
     0
  9
$PDMODE
 70
     0
  9
$PDSIZE
 40
-1.0
  9
$PLINEWID
 40
0.0
  9
$SPLFRAME
 70
     0
  9
$SPLINETYPE
 70
     6
  9
$SPLINESEGS
 70
     8
  9
$HANDSEED
  5
E1
  9
$SURFTAB1
 70
     6
  9
$SURFTAB2
 70
     6
  9
$SURFTYPE
 70
     6
  9
$SURFU
 70
     6
  9
$SURFV
 70
     6
  9
$UCSBASE
  2

  9
$UCSNAME
  2

  9
$UCSORG
 10
0.0
 20
0.0
 30
0.0
  9
$UCSXDIR
 10
1.0
 20
0.0
 30
0.0
  9
$UCSYDIR
 10
0.0
 20
1.0
 30
0.0
  9
$UCSORTHOREF
  2

  9
$UCSORTHOVIEW
 70
     0
  9
$UCSORGTOP
 10
0.0
 20
0.0
 30
0.0
  9
$UCSORGBOTTOM
 10
0.0
 20
0.0
 30
0.0
  9
$UCSORGLEFT
 10
0.0
 20
0.0
 30
0.0
  9
$UCSORGRIGHT
 10
0.0
 20
0.0
 30
0.0
  9
$UCSORGFRONT
 10
0.0
 20
0.0
 30
0.0
  9
$UCSORGBACK
 10
0.0
 20
0.0
 30
0.0
  9
$PUCSBASE
  2

  9
$PUCSNAME
  2

  9
$PUCSORG
 10
0.0
 20
0.0
 30
0.0
  9
$PUCSXDIR
 10
1.0
 20
0.0
 30
0.0
  9
$PUCSYDIR
 10
0.0
 20
1.0
 30
0.0
  9
$PUCSORTHOREF
  2

  9
$PUCSORTHOVIEW
 70
     0
  9
$PUCSORGTOP
 10
0.0
 20
0.0
 30
0.0
  9
$PUCSORGBOTTOM
 10
0.0
 20
0.0
 30
0.0
  9
$PUCSORGLEFT
 10
0.0
 20
0.0
 30
0.0
  9
$PUCSORGRIGHT
 10
0.0
 20
0.0
 30
0.0
  9
$PUCSORGFRONT
 10
0.0
 20
0.0
 30
0.0
  9
$PUCSORGBACK
 10
0.0
 20
0.0
 30
0.0
  9
$USERI1
 70
     0
  9
$USERI2
 70
     0
  9
$USERI3
 70
     0
  9
$USERI4
 70
     0
  9
$USERI5
 70
     0
  9
$USERR1
 40
0.0
  9
$USERR2
 40
0.0
  9
$USERR3
 40
0.0
  9
$USERR4
 40
0.0
  9
$USERR5
 40
0.0
  9
$WORLDVIEW
 70
     1
  9
$SHADEDGE
 70
     3
  9
$SHADEDIF
 70
    70
  9
$TILEMODE
 70
     1
  9
$MAXACTVP
 70
    64
  9
$PINSBASE
 10
0.0
 20
0.0
 30
0.0
  9
$PLIMCHECK
 70
     0
  9
$PEXTMIN
 10
1.0000000000E+20
 20
1.0000000000E+20
 30
1.0000000000E+20
  9
$PEXTMAX
 10
-1.0000000000E+20
 20
-1.0000000000E+20
 30
-1.0000000000E+20
  9
$PLIMMIN
 10
0.0
 20
0.0
  9
$PLIMMAX
 10
420.0
 20
297.0
  9
$UNITMODE
 70
     0
  9
$VISRETAIN
 70
     1
  9
$PLINEGEN
 70
     0
  9
$PSLTSCALE
 70
     1
  9
$TREEDEPTH
 70
  3020
  9
$CMLSTYLE
  2
Standard
  9
$CMLJUST
 70
     0
  9
$CMLSCALE
 40
20.0
  9
$PROXYGRAPHICS
 70
     1
  9
$MEASUREMENT
 70
     1
  9
$CELWEIGHT
370
    -1
  9
$ENDCAPS
280
     0
  9
$JOINSTYLE
280
     0
  9
$LWDISPLAY
290
     1
  9
$INSUNITS
 70
     4
  9
$HYPERLINKBASE
  1

  9
$STYLESHEET
  1

  9
$XEDIT
290
     1
  9
$CEPSNTYPE
380
     0
  9
$PSTYLEMODE
290
     1
  9
$FINGERPRINTGUID
  2
{428418f5-ca39-4ec9-990b-da3af4bb51c1}
  9
$VERSIONGUID
  2
{FAEB1C32-E019-11D5-929B-00C0DF256EC4}
  9
$EXTNAMES
290
     1
  9
$PSVPSCALE
 40
0.0
  9
$OLESTARTUP
290
     0
  0
ENDSEC
  0
SECTION
  2
CLASSES
  0
CLASS
  1
ACDBDICTIONARYWDFLT
  2
AcDbDictionaryWithDefault
  3
ObjectDBX Classes
 90
        0
280
     0
281
     0
  0
CLASS
  1
VISUALSTYLE
  2
AcDbVisualStyle
  3
ObjectDBX Classes
 90
     4095
280
     0
281
     0
  0
CLASS
  1
MATERIAL
  2
AcDbMaterial
  3
ObjectDBX Classes
 90
     1153
280
     0
281
     0
  0
CLASS
  1
SCALE
  2
AcDbScale
  3
ObjectDBX Classes
 90
     1153
280
     0
281
     0
  0
CLASS
  1
TABLESTYLE
  2
AcDbTableStyle
  3
ObjectDBX Classes
 90
     4095
280
     0
281
     0
  0
CLASS
  1
MLEADERSTYLE
  2
AcDbMLeaderStyle
  3
ACDB_MLEADERSTYLE_CLASS
 90
     4095
280
     0
281
     0
  0
CLASS
  1
SUN
  2
AcDbSun
  3
SCENEOE
 90
     1153
280
     0
281
     0
  0
CLASS
  1
ACDBPLACEHOLDER
  2
AcDbPlaceHolder
  3
ObjectDBX Classes
 90
        0
280
     0
281
     0
  0
CLASS
  1
LAYOUT
  2
AcDbLayout
  3
ObjectDBX Classes
 90
        0
280
     0
281
     0
  0
ENDSEC
  0
SECTION
  2
TABLES
  0
TABLE
  2
VPORT
  5
8
330
0
100
AcDbSymbolTable
 70
     1
  0
VPORT
  5
29
330
8
100
AcDbSymbolTableRecord
100
AcDbViewportTableRecord
  2
*Active
 70
     0
 10
0.0
 20
0.0
 11
1.0
 21
1.0
 12
139.7
 22
107.95
 13
0.0
 23
0.0
 14
10.0
 24
10.0
 15
10.0
 25
10.0
 16
0.0
 26
0.0
 36
1.0
 17
0.0
 27
0.0
 37
0.0
 40
215.9
 41
1.2941176471
 42
50.0
 43
0.0
 44
0.0
 50
0.0
 51
0.0
 71
     0
 72
  2000
 73
     1
 74
     3
 75
     0
 76
     0
 77
     0
 78
     0
281
     0
 65
     1
110
0.0
120
0.0
130
0.0
111
1.0
121
0.0
131
0.0
112
0.0
122
1.0
132
0.0
 79
     0
146
0.0
  0
ENDTAB
  0
TABLE
  2
LTYPE
  5
5
330
0
100
AcDbSymbolTable
 70
     6
  0
LTYPE
  5
14
330
5
100
AcDbSymbolTableRecord
100
AcDbLinetypeTableRecord
  2
ByBlock
 70
     0
  3

 72
    65
 73
     0
 40
0.0
  0
LTYPE
  5
15
330
5
100
AcDbSymbolTableRecord
100
AcDbLinetypeTableRecord
  2
ByLayer
 70
     0
  3

 72
    65
 73
     0
 40
0.0
  0
LTYPE
  5
16
330
5
100
AcDbSymbolTableRecord
100
AcDbLinetypeTableRecord
  2
Continuous
 70
     0
  3
Solid line
 72
    65
 73
     0
 40
0.0
  0
LTYPE
  5
6E
330
5
100
AcDbSymbolTableRecord
100
AcDbLinetypeTableRecord
  2
HIDDEN
 70
     0
  3
Hidden __ __ __ __ __ __ __ __ __ __ __ __ __ __
 72
    65
 73
     2
 40
1.905
 49
1.27
 74
     0
 49
-0.635
 74
     0
  0
LTYPE
  5
6F
330
5
100
AcDbSymbolTableRecord
100
AcDbLinetypeTableRecord
  2
PHANTOM
 70
     0
  3
Phantom ______  __  __  ______  __  __  ______
 72
    65
 73
     6
 40
12.7
 49
6.35
 74
     0
 49
-1.27
 74
     0
 49
1.27
 74
     0
 49
-1.27
 74
     0
 49
1.27
 74
     0
 49
-1.27
 74
     0
  0
LTYPE
  5
70
330
5
100
AcDbSymbolTableRecord
100
AcDbLinetypeTableRecord
  2
CENTER
 70
     0
  3
Center ____ _ ____ _ ____ _ ____ _ ____ _ ____
 72
    65
 73
     4
 40
10.16
 49
6.35
 74
     0
 49
-1.27
 74
     0
 49
1.27
 74
     0
 49
-1.27
 74
     0
  0
LTYPE
  5
71
330
5
100
AcDbSymbolTableRecord
100
AcDbLinetypeTableRecord
  2
CENTERX2
 70
     0
  3
Center (2x) ________  __  ________  __  _____
 72
    65
 73
     4
 40
20.32
 49
12.7
 74
     0
 49
-2.54
 74
     0
 49
2.54
 74
     0
 49
-2.54
 74
     0
  0
LTYPE
  5
72
330
5
100
AcDbSymbolTableRecord
100
AcDbLinetypeTableRecord
  2
DOT2
 70
     0
  3
Dot (.5x) ........................................
 72
    65
 73
     2
 40
0.635
 49
0.0
 74
     0
 49
-0.635
 74
     0
  0
ENDTAB
  0
TABLE
  2
LAYER
  5
2
330
0
100
AcDbSymbolTable
 70
    17
  0
LAYER
  5
10
330
2
100
AcDbSymbolTableRecord
100
AcDbLayerTableRecord
  2
0
 70
     0
 62
     7
  6
Continuous
370
    -3
390
F
  0
LAYER
  5
73
330
2
100
AcDbSymbolTableRecord
100
AcDbLayerTableRecord
  2
FORMAT
 70
     0
 62
     7
  6
Continuous
370
    -3
390
F
  0
LAYER
  5
74
330
2
100
AcDbSymbolTableRecord
100
AcDbLayerTableRecord
  2
YARDIMCI_GEOMETRI
 70
     0
 62
    -6
  6
Continuous
290
     0
370
    -3
390
F
  0
LAYER
  5
75
330
2
100
AcDbSymbolTableRecord
100
AcDbLayerTableRecord
  2
SAYFA_CERCEVESI
 70
     0
 62
     7
  6
Continuous
370
    25
390
F
  0
LAYER
  5
76
330
2
100
AcDbSymbolTableRecord
100
AcDbLayerTableRecord
  2
ANTET
 70
     0
 62
     7
  6
Continuous
370
    -3
390
F
  0
LAYER
  5
77
330
2
100
AcDbSymbolTableRecord
100
AcDbLayerTableRecord
  2
OLCU
 70
     0
 62
   150
  6
Continuous
370
    -3
390
F
  0
LAYER
  5
78
330
2
100
AcDbSymbolTableRecord
100
AcDbLayerTableRecord
  2
METIN
 70
     0
 62
    96
  6
Continuous
370
    -3
390
F
  0
LAYER
  5
79
330
2
100
AcDbSymbolTableRecord
100
AcDbLayerTableRecord
  2
BALON
 70
     0
 62
     5
  6
Continuous
370
    -3
390
F
  0
LAYER
  5
7A
330
2
100
AcDbSymbolTableRecord
100
AcDbLayerTableRecord
  2
VURGU
 70
     0
 62
     7
  6
Continuous
370
    -3
390
F
  0
LAYER
  5
7B
330
2
100
AcDbSymbolTableRecord
100
AcDbLayerTableRecord
  2
SILIK
 70
     0
 62
     7
  6
Continuous
370
    -3
390
F
  0
LAYER
  5
7C
330
2
100
AcDbSymbolTableRecord
100
AcDbLayerTableRecord
  2
MODEL
 70
     0
 62
     7
  6
Continuous
370
    -3
390
F
  0
LAYER
  5
7D
330
2
100
AcDbSymbolTableRecord
100
AcDbLayerTableRecord
  2
DETAYLANDıRMA
 70
     0
 62
   190
  6
Continuous
370
    -3
390
F
  0
LAYER
  5
7E
330
2
100
AcDbSymbolTableRecord
100
AcDbLayerTableRecord
  2
TOLERANS
 70
     0
 62
   230
  6
Continuous
370
    -3
390
F
  0
LAYER
  5
7F
330
2
100
AcDbSymbolTableRecord
100
AcDbLayerTableRecord
  2
MERKEZ_CIZGILERI
 70
     0
 62
    30
  6
Continuous
370
    -3
390
F
  0
LAYER
  5
80
330
2
100
AcDbSymbolTableRecord
100
AcDbLayerTableRecord
  2
KESIT-DETAY_CIZGILERI
 70
     0
 62
     7
  6
Continuous
370
    -3
390
F
  0
LAYER
  5
81
330
2
100
AcDbSymbolTableRecord
100
AcDbLayerTableRecord
  2
\U+041E\U+0421\U+0415\U+0412\U+042B\U+0415
 70
     0
 62
     7
  6
Continuous
370
    -3
390
F
  0
LAYER
  5
82
330
2
100
AcDbSymbolTableRecord
100
AcDbLayerTableRecord
  2
\U+0412\U+041E\U+0414\U+042F\U+041D\U+042B\U+0415_\U+0417\U+041D\U+0410\U+041A\U+0418
 70
     0
 62
    11
  6
Continuous
370
    -3
390
F
  0
ENDTAB
  0
TABLE
  2
STYLE
  5
3
330
0
100
AcDbSymbolTable
 70
     1
  0
STYLE
  5
11
330
3
100
AcDbSymbolTableRecord
100
AcDbTextStyleTableRecord
  2
Standard
 70
     0
 40
0.0
 41
1.0
 50
0.0
 71
     0
 42
3.5
  3
txt
  4

  0
ENDTAB
  0
TABLE
  2
VIEW
  5
6
330
0
100
AcDbSymbolTable
 70
     0
  0
ENDTAB
  0
TABLE
  2
UCS
  5
7
330
0
100
AcDbSymbolTable
 70
     0
  0
ENDTAB
  0
TABLE
  2
APPID
  5
9
330
0
100
AcDbSymbolTable
 70
     1
  0
APPID
  5
12
330
9
100
AcDbSymbolTableRecord
100
AcDbRegAppTableRecord
  2
ACAD
 70
     0
  0
ENDTAB
  0
TABLE
  2
DIMSTYLE
  5
A
330
0
100
AcDbSymbolTable
 70
     1
100
AcDbDimStyleTable
  0
DIMSTYLE
105
27
330
A
100
AcDbSymbolTableRecord
100
AcDbDimStyleTableRecord
  2
ISO-25
 70
     0
 41
2.5
 42
0.625
 43
3.75
 44
1.25
 73
     0
 74
     0
 77
     1
 78
     8
140
2.5
141
2.5
143
0.0393700787
147
0.625
171
     3
172
     1
178
     0
271
     2
272
     2
274
     3
278
    44
283
     0
284
     8
340
11
  0
ENDTAB
  0
TABLE
  2
BLOCK_RECORD
  5
1
330
0
100
AcDbSymbolTable
 70
     3
  0
BLOCK_RECORD
  5
1F
330
1
100
AcDbSymbolTableRecord
100
AcDbBlockTableRecord
  2
*Model_Space
340
22
  0
BLOCK_RECORD
  5
1B
330
1
100
AcDbSymbolTableRecord
100
AcDbBlockTableRecord
  2
*Paper_Space
340
1E
  0
BLOCK_RECORD
  5
23
330
1
100
AcDbSymbolTableRecord
100
AcDbBlockTableRecord
  2
*Paper_Space0
340
26
  0
BLOCK_RECORD
  5
A7
330
1
100
AcDbSymbolTableRecord
100
AcDbBlockTableRecord
  2
SW_CENTERMARKSYMBOL_0
340
0
102
{BLKREFS
331
B2
102
}
  0
BLOCK_RECORD
  5
C7
330
1
100
AcDbSymbolTableRecord
100
AcDbBlockTableRecord
  2
SW_CENTERMARKSYMBOL_1
340
0
102
{BLKREFS
331
D2
102
}
  0
ENDTAB
  0
ENDSEC
  0
SECTION
  2
BLOCKS
  0
BLOCK
  5
20
330
1F
100
AcDbEntity
  8
0
100
AcDbBlockBegin
  2
*Model_Space
 70
     0
 10
0.0
 20
0.0
 30
0.0
  3
*Model_Space
  1

  0
ENDBLK
  5
21
330
1F
100
AcDbEntity
  8
0
100
AcDbBlockEnd
  0
BLOCK
  5
1C
330
1B
100
AcDbEntity
 67
     1
  8
0
100
AcDbBlockBegin
  2
*Paper_Space
 70
     0
 10
0.0
 20
0.0
 30
0.0
  3
*Paper_Space
  1

  0
ENDBLK
  5
1D
330
1B
100
AcDbEntity
 67
     1
  8
0
100
AcDbBlockEnd
  0
BLOCK
  5
24
330
23
100
AcDbEntity
  8
0
100
AcDbBlockBegin
  2
*Paper_Space0
 70
     0
 10
0.0
 20
0.0
 30
0.0
  3
*Paper_Space0
  1

  0
ENDBLK
  5
25
330
23
100
AcDbEntity
  8
0
100
AcDbBlockEnd
  0
BLOCK
  5
A8
330
A7
100
AcDbEntity
  8
0
100
AcDbBlockBegin
  2
SW_CENTERMARKSYMBOL_0
 70
     0
 10
0.0
 20
0.0
 30
0.0
  3
SW_CENTERMARKSYMBOL_0
  1

  0
LINE
  5
AA
330
A7
100
AcDbEntity
  8
FORMAT
 62
     0
100
AcDbLine
 10
0.0
 20
0.0
 30
0.0
 11
0.0
 21
2.5
 31
0.0
  0
LINE
  5
AB
330
A7
100
AcDbEntity
  8
FORMAT
 62
     0
100
AcDbLine
 10
0.0
 20
0.0
 30
0.0
 11
-2.5
 21
0.0
 31
0.0
  0
LINE
  5
AC
330
A7
100
AcDbEntity
  8
FORMAT
 62
     0
100
AcDbLine
 10
0.0
 20
0.0
 30
0.0
 11
0.0
 21
-2.5
 31
0.0
  0
LINE
  5
AD
330
A7
100
AcDbEntity
  8
FORMAT
 62
     0
100
AcDbLine
 10
0.0
 20
0.0
 30
0.0
 11
2.5
 21
0.0
 31
0.0
  0
LINE
  5
AE
330
A7
100
AcDbEntity
  8
FORMAT
 62
     0
100
AcDbLine
 10
0.0
 20
5.0
 30
0.0
 11
0.0
 21
115.0
 31
0.0
  0
LINE
  5
AF
330
A7
100
AcDbEntity
  8
FORMAT
 62
     0
100
AcDbLine
 10
-5.0
 20
0.0
 30
0.0
 11
-115.0
 21
0.0
 31
0.0
  0
LINE
  5
B0
330
A7
100
AcDbEntity
  8
FORMAT
 62
     0
100
AcDbLine
 10
0.0
 20
-5.0
 30
0.0
 11
0.0
 21
-115.0
 31
0.0
  0
LINE
  5
B1
330
A7
100
AcDbEntity
  8
FORMAT
 62
     0
100
AcDbLine
 10
5.0
 20
0.0
 30
0.0
 11
115.0
 21
0.0
 31
0.0
  0
ENDBLK
  5
A9
330
A7
100
AcDbEntity
  8
0
100
AcDbBlockEnd
  0
BLOCK
  5
C8
330
C7
100
AcDbEntity
  8
0
100
AcDbBlockBegin
  2
SW_CENTERMARKSYMBOL_1
 70
     0
 10
0.0
 20
0.0
 30
0.0
  3
SW_CENTERMARKSYMBOL_1
  1

  0
LINE
  5
CA
330
C7
100
AcDbEntity
  8
FORMAT
 62
     0
100
AcDbLine
 10
0.0
 20
0.0
 30
0.0
 11
0.0
 21
2.5
 31
0.0
  0
LINE
  5
CB
330
C7
100
AcDbEntity
  8
FORMAT
 62
     0
100
AcDbLine
 10
0.0
 20
0.0
 30
0.0
 11
-2.5
 21
0.0
 31
0.0
  0
LINE
  5
CC
330
C7
100
AcDbEntity
  8
FORMAT
 62
     0
100
AcDbLine
 10
0.0
 20
0.0
 30
0.0
 11
0.0
 21
-2.5
 31
0.0
  0
LINE
  5
CD
330
C7
100
AcDbEntity
  8
FORMAT
 62
     0
100
AcDbLine
 10
0.0
 20
0.0
 30
0.0
 11
2.5
 21
0.0
 31
0.0
  0
LINE
  5
CE
330
C7
100
AcDbEntity
  8
FORMAT
 62
     0
100
AcDbLine
 10
0.0
 20
5.0
 30
0.0
 11
0.0
 21
115.0
 31
0.0
  0
LINE
  5
CF
330
C7
100
AcDbEntity
  8
FORMAT
 62
     0
100
AcDbLine
 10
-5.0
 20
0.0
 30
0.0
 11
-115.0
 21
0.0
 31
0.0
  0
LINE
  5
D0
330
C7
100
AcDbEntity
  8
FORMAT
 62
     0
100
AcDbLine
 10
0.0
 20
-5.0
 30
0.0
 11
0.0
 21
-115.0
 31
0.0
  0
LINE
  5
D1
330
C7
100
AcDbEntity
  8
FORMAT
 62
     0
100
AcDbLine
 10
5.0
 20
0.0
 30
0.0
 11
115.0
 21
0.0
 31
0.0
  0
ENDBLK
  5
C9
330
C7
100
AcDbEntity
  8
0
100
AcDbBlockEnd
  0
ENDSEC
  0
SECTION
  2
ENTITIES
  0
LINE
  5
83
330
1F
100
AcDbEntity
  8
0
  6
Continuous
 62
     7
370
    25
100
AcDbLine
 10
10.0672859472
 20
97.2812040619
 30
0.0
 11
10.0672859472
 21
-54.1197643705
 31
0.0
  0
LINE
  5
84
330
1F
100
AcDbEntity
  8
0
  6
Continuous
 62
     7
370
    25
100
AcDbLine
 10
235.0672799867
 20
-54.1197643705
 30
0.0
 11
235.0672799867
 21
97.2812040619
 31
0.0
  0
ARC
  5
85
330
1F
100
AcDbEntity
  8
0
  6
Continuous
 62
     7
370
    25
100
AcDbCircle
 10
235.067282967
 20
97.2812098625
 30
0.0
 40
225.0
100
AcDbArc
 50
135.0
 51
180.0
  0
LINE
  5
86
330
1F
100
AcDbEntity
  8
0
  6
Continuous
 62
     7
370
    25
100
AcDbLine
 10
186.0177684349
 20
366.429747539
 30
0.0
 11
75.9682561976
 21
256.3802315764
 31
0.0
  0
LINE
  5
87
330
1F
100
AcDbEntity
  8
0
  6
Continuous
 62
     7
370
    25
100
AcDbLine
 10
235.0672799867
 20
97.2812040619
 30
0.0
 11
345.1167959493
 21
207.3307349257
 31
0.0
  0
LINE
  5
88
330
1F
100
AcDbEntity
  8
0
  6
Continuous
 62
     7
370
    25
100
AcDbLine
 10
122.567282967
 20
-54.1197643705
 30
0.0
 11
235.0672799867
 21
-54.1197643705
 31
0.0
  0
LINE
  5
89
330
1F
100
AcDbEntity
  8
0
  6
Continuous
 62
     7
370
    25
100
AcDbLine
 10
10.0672859472
 20
-54.1197643705
 30
0.0
 11
122.567282967
 21
-54.1197643705
 31
0.0
  0
LWPOLYLINE
  5
8A
330
1F
100
AcDbEntity
  8
0
  6
Continuous
 62
     7
370
    25
100
AcDbPolyline
 90
       29
 70
   128
 43
0.0
 10
265.5672896427
 20
286.8802263312
 10
270.0276542228
 20
282.419861751
 10
274.4739968103
 20
277.9735042624
 10
278.8923252147
 20
273.5551907591
 10
283.2687217515
 20
269.1788091235
 10
287.5894177478
 20
264.858098226
 10
291.8408233446
 20
260.6067075304
 10
296.009557299
 20
256.4379586748
 10
300.0825214904
 20
252.3649944834
 10
304.0468860191
 20
248.4006299548
 10
307.890178613
 20
244.557352262
 10
311.6002995294
 20
240.8472015433
 10
315.1655960601
 20
237.2819199137
 10
318.5748327297
 20
233.8726832442
 10
321.817280702
 20
230.630250173
 10
324.8827475828
 20
227.5647534899
 10
327.7615923208
 20
224.6859087519
 10
330.44475501
 20
222.002775865
 10
332.923786692
 20
219.5237292818
 10
335.1908791584
 20
217.2566368155
 10
337.2389245552
 20
215.2085914187
 10
339.0614557785
 20
213.3860601954
 10
340.6527358812
 20
211.7947651915
 10
342.0077878755
 20
210.4397429995
 10
343.122320227
 20
209.3251957468
 10
343.992846064
 20
208.4546699099
 10
344.6166086715
 20
207.8309073023
 10
344.9916559976
 20
207.4558748774
 10
345.1167959493
 20
207.3307349257
  0
LWPOLYLINE
  5
8B
330
1F
100
AcDbEntity
  8
0
  6
Continuous
 62
     7
370
    25
100
AcDbPolyline
 90
       29
 70
   128
 43
0.0
 10
186.0177684349
 20
366.429747539
 10
186.1429158371
 20
366.3046075873
 10
186.5179631632
 20
365.92954536
 10
187.1417257708
 20
365.3057827525
 10
188.0122441572
 20
364.4352867178
 10
189.1267765087
 20
363.3207394652
 10
190.4818210524
 20
361.9656874709
 10
192.0731160563
 20
360.374392467
 10
193.8956472796
 20
358.5518612437
 10
195.9436852258
 20
356.5038456492
 10
198.2107851428
 20
354.2367233805
 10
200.6898168248
 20
351.7577065997
 10
203.3729720634
 20
349.0745439104
 10
206.2518093508
 20
346.1956991724
 10
209.3172836822
 20
343.1302322916
 10
212.5597391051
 20
339.8877694182
 10
215.9689757746
 20
336.4785327486
 10
219.5342648548
 20
332.9132511191
 10
223.2443932217
 20
329.2031302027
 10
227.0876783651
 20
325.3598227076
 10
231.0520428937
 20
321.3954879813
 10
235.1249996346
 20
317.3225237898
 10
239.2937410396
 20
313.1537749342
 10
243.5451540869
 20
308.9023544363
 10
247.8658575338
 20
304.5816733412
 10
252.2422391695
 20
300.2052619032
 10
256.6605675739
 20
295.7869484
 10
261.1069101614
 20
291.3406207137
 10
265.5672896427
 20
286.8802263312
  0
LINE
  5
8C
330
1F
100
AcDbEntity
  8
0
  6
Continuous
 62
     1
370
    25
100
AcDbLine
 10
10.0672859472
 20
97.2812040619
 30
0.0
 11
235.0672799867
 21
97.2812040619
 31
0.0
  0
LWPOLYLINE
  5
8D
330
1F
100
AcDbEntity
  8
0
  6
Continuous
 62
     1
370
    25
100
AcDbPolyline
 90
       58
 70
   128
 43
0.0
 10
75.9682561976
 20
256.3802315764
 10
76.0934035998
 20
256.2550916247
 10
76.4684472006
 20
255.8800591997
 10
77.0922098082
 20
255.2562965922
 10
77.9627281946
 20
254.3857707552
 10
79.0772642714
 20
253.2712235026
 10
80.4323125404
 20
251.9161715083
 10
82.023603819
 20
250.3248765044
 10
83.8461350423
 20
248.5023452811
 10
85.8941729885
 20
246.4543296866
 10
88.1612729054
 20
244.1872074179
 10
90.6403008622
 20
241.7081906371
 10
93.3234561008
 20
239.0250279478
 10
96.2022989762
 20
236.1461832098
 10
99.2677695823
 20
233.080716329
 10
102.5102250051
 20
229.8382832579
 10
105.919459812
 20
226.4290465884
 10
109.4847507548
 20
222.8637351565
 10
113.1948772591
 20
219.1536142401
 10
117.0381684561
 20
215.3103365473
 10
121.0025299579
 20
211.3459720187
 10
125.0754894928
 20
207.2730078272
 10
129.2442315963
 20
203.1042589716
 10
133.495639987
 20
198.8528384737
 10
137.8163378459
 20
194.5321573786
 10
142.1927325201
 20
190.1557608418
 10
146.6110497486
 20
185.7374473385
 10
151.0573941988
 20
181.2911047511
 10
155.5177699548
 20
176.8307252697
 10
159.9781457108
 20
172.3703457884
 10
164.4244882983
 20
167.9240032009
 10
168.8428092521
 20
163.5056896977
 10
173.2192020637
 20
159.1292931609
 10
177.5399017852
 20
154.8085971646
 10
181.791307382
 20
150.5571915678
 10
185.960048787
 20
146.3884427122
 10
190.0330129784
 20
142.3154785208
 10
193.9973700565
 20
138.3511139922
 10
197.8406626504
 20
134.5078362994
 10
201.5507910174
 20
130.7977004818
 10
205.1160800975
 20
127.2324188523
 10
208.5253167671
 20
123.8231821827
 10
211.76777219
 20
120.5807193093
 10
214.8332390708
 20
117.5152524285
 10
217.7120838088
 20
114.6364076905
 10
220.3952390474
 20
111.9532599024
 10
222.8742707294
 20
109.4742282204
 10
225.1413706463
 20
107.2071208529
 10
227.189401142
 20
105.1590903572
 10
229.0119398159
 20
103.3365591339
 10
230.6032273692
 20
101.7452641301
 10
231.9582719129
 20
100.3902121357
 10
233.072811715
 20
99.2756797842
 10
233.9433301013
 20
98.4051688485
 10
234.5670927089
 20
97.7814062409
 10
234.942140035
 20
97.4063589148
 10
235.0672799867
 20
97.2812040619
 10
235.0672799867
 20
97.2812040619
  0
LINE
  5
8E
330
1F
100
AcDbEntity
  8
0
  6
Continuous
 62
     7
370
    25
100
AcDbLine
 10
-384.9911002341
 20
313.8802363448
 30
0.0
 11
-384.9911002341
 21
195.4918815665
 31
0.0
  0
LINE
  5
8F
330
1F
100
AcDbEntity
  8
0
  6
Continuous
 62
     7
370
    25
100
AcDbLine
 10
-134.9911002341
 20
195.4918815665
 30
0.0
 11
-134.9911002341
 21
313.8802363448
 31
0.0
  0
LINE
  5
90
330
1F
100
AcDbEntity
  8
0
  6
Continuous
 62
     7
370
    25
100
AcDbLine
 10
-384.9911002341
 20
195.4918815665
 30
0.0
 11
-384.9911002341
 21
107.1035428814
 31
0.0
  0
LINE
  5
91
330
1F
100
AcDbEntity
  8
0
  6
Continuous
 62
     7
370
    25
100
AcDbLine
 10
-134.9911002341
 20
107.1035428814
 30
0.0
 11
-134.9911002341
 21
195.4918815665
 31
0.0
  0
LINE
  5
92
330
1F
100
AcDbEntity
  8
0
  6
Continuous
 62
     7
370
    25
100
AcDbLine
 10
-384.9911002341
 20
107.1035428814
 30
0.0
 11
-384.9911002341
 21
-54.1197643705
 31
0.0
  0
LINE
  5
93
330
1F
100
AcDbEntity
  8
0
  6
Continuous
 62
     7
370
    25
100
AcDbLine
 10
-134.9911002341
 20
-54.1197643705
 30
0.0
 11
-134.9911002341
 21
107.1035428814
 31
0.0
  0
LWPOLYLINE
  5
94
330
1F
100
AcDbEntity
  8
0
  6
Continuous
 62
     7
370
    25
100
AcDbPolyline
 90
      119
 70
   128
 43
0.0
 10
-384.9911002341
 20
313.8802363448
 10
-384.8139403286
 20
309.1760291628
 10
-384.2829523506
 20
304.485143619
 10
-383.3996413174
 20
299.8208715491
 10
-382.1665255251
 20
295.1964749865
 10
-380.587084395
 20
290.6250371508
 10
-378.6658031764
 20
286.1195220522
 10
-376.4081207934
 20
281.6926850848
 10
-373.8204447451
 20
277.3571028284
 10
-370.9101064029
 20
273.1250240378
 10
-367.6853610101
 20
269.008488851
 10
-364.1553429785
 20
265.0191499762
 10
-360.3300584379
 20
261.1683024935
 10
-356.2203479829
 20
257.4668838553
 10
-351.8378717723
 20
253.925384479
 10
-347.1950424733
 20
250.5538179449
 10
-342.3050252619
 20
247.3617507986
 10
-337.1816782179
 20
244.3582429461
 10
-331.8395299735
 20
241.5518178515
 10
-326.293712658
 20
238.9504029326
 10
-320.5599581721
 20
236.561359363
 10
-314.6545162323
 20
234.3915118746
 10
-308.5941208425
 20
232.4469997458
 10
-302.3959567669
 20
230.7333066038
 10
-296.0775924745
 20
229.2552902274
 10
-289.6569372984
 20
228.0171527438
 10
-283.1521911445
 20
227.0224108271
 10
-276.5817904743
 20
226.2738658957
 10
-269.9643636021
 20
225.7736637167
 10
-263.3186655017
 20
225.5232049994
 10
-256.6635349664
 20
225.5232049994
 10
-250.0178368661
 20
225.7736637167
 10
-243.4004099938
 20
226.2738658957
 10
-236.8300093236
 20
227.0224108271
 10
-230.3252631697
 20
228.0171527438
 10
-223.9046079936
 20
229.2552902274
 10
-217.5862437013
 20
230.7333066038
 10
-211.3880796256
 20
232.4469997458
 10
-205.3276842358
 20
234.3915118746
 10
-199.422242296
 20
236.561359363
 10
-193.6884878102
 20
238.9504029326
 10
-188.1426704946
 20
241.5518178515
 10
-182.8005222502
 20
244.3582429461
 10
-177.6771752062
 20
247.3617507986
 10
-172.7871579948
 20
250.5538179449
 10
-168.1443286958
 20
253.925384479
 10
-163.7618524852
 20
257.4668838553
 10
-159.6521420303
 20
261.1683024935
 10
-155.8268574896
 20
265.0191499762
 10
-152.296839458
 20
269.008488851
 10
-149.0720940652
 20
273.1250240378
 10
-146.161755723
 20
277.3571028284
 10
-143.5740796748
 20
281.6926850848
 10
-141.3163972917
 20
286.1195220522
 10
-139.3951160732
 20
290.6250371508
 10
-137.815674943
 20
295.1964749865
 10
-136.5825591507
 20
299.8208715491
 10
-135.6992481175
 20
304.485143619
 10
-135.1682601395
 20
309.1760291628
 10
-134.9911002341
 20
313.8802363448
 10
-135.1682601395
 20
318.5844435267
 10
-135.6992481175
 20
323.2753290705
 10
-136.5825591507
 20
327.9396011404
 10
-137.815674943
 20
332.563997703
 10
-139.3951160732
 20
337.1354355387
 10
-141.3163972917
 20
341.6409506373
 10
-143.5740796748
 20
346.0677876047
 10
-146.161755723
 20
350.4033698611
 10
-149.0720940652
 20
354.6354486517
 10
-152.296839458
 20
358.7519838385
 10
-155.8268574896
 20
362.7413227133
 10
-159.6521420303
 20
366.592170196
 10
-163.7618524852
 20
370.2935888342
 10
-168.1443286958
 20
373.8350882105
 10
-172.7871579948
 20
377.2066547446
 10
-177.6771752062
 20
380.3987218909
 10
-182.8005222502
 20
383.4022297434
 10
-188.1426704946
 20
386.208654838
 10
-193.6884878102
 20
388.8100697569
 10
-199.422242296
 20
391.1991133265
 10
-205.3276842358
 20
393.3689608149
 10
-211.3880796256
 20
395.3134729437
 10
-217.5862437013
 20
397.0271660857
 10
-223.9046079936
 20
398.5051824622
 10
-230.3252631697
 20
399.7433199458
 10
-236.8300093236
 20
400.7380618624
 10
-243.4004099938
 20
401.4866067938
 10
-250.0178368661
 20
401.9868089728
 10
-256.6635349664
 20
402.2372676901
 10
-263.3186655017
 20
402.2372676901
 10
-269.9643636021
 20
401.9868089728
 10
-276.5817904743
 20
401.4866067938
 10
-283.1521911445
 20
400.7380618624
 10
-289.6569372984
 20
399.7433199458
 10
-296.0775924745
 20
398.5051824622
 10
-302.3959567669
 20
397.0271660857
 10
-308.5941208425
 20
395.3134729437
 10
-314.6545162323
 20
393.3689608149
 10
-320.5599581721
 20
391.1991133265
 10
-326.293712658
 20
388.8100697569
 10
-331.8395299735
 20
386.208654838
 10
-337.1816782179
 20
383.4022297434
 10
-342.3050252619
 20
380.3987218909
 10
-347.1950424733
 20
377.2066547446
 10
-351.8378717723
 20
373.8350882105
 10
-356.2203479829
 20
370.2935888342
 10
-360.3300584379
 20
366.592170196
 10
-364.1553429785
 20
362.7413227133
 10
-367.6853610101
 20
358.7519838385
 10
-370.9101064029
 20
354.6354486517
 10
-373.8204447451
 20
350.4033698611
 10
-376.4081207934
 20
346.0677876047
 10
-378.6658031764
 20
341.6409506373
 10
-380.587084395
 20
337.1354355387
 10
-382.1665255251
 20
332.563997703
 10
-383.3996413174
 20
327.9396011404
 10
-384.2829523506
 20
323.2753290705
 10
-384.8139403286
 20
318.5844435267
 10
-384.9911002341
 20
313.8802363448
  0
LWPOLYLINE
  5
95
330
1F
100
AcDbEntity
  8
0
  6
Continuous
 62
     7
370
    25
100
AcDbPolyline
 90
      112
 70
   128
 43
0.0
 10
-370.1911030236
 20
313.8802363448
 10
-370.0145987692
 20
318.288744884
 10
-369.4856597009
 20
322.6831271223
 10
-368.6059771004
 20
327.0493163638
 10
-367.3783598366
 20
331.3733055167
 10
-365.8067567172
 20
335.6412961058
 10
-363.8961968842
 20
339.8395492606
 10
-361.6527898135
 20
343.9546539358
 10
-359.0837327662
 20
347.9734077029
 10
-356.1972586336
 20
351.8829657606
 10
-353.0025986853
 20
355.6707813315
 10
-349.5099974695
 20
359.3247546725
 10
-345.7306383076
 20
362.8331138663
 10
-341.6766358438
 20
366.1847128443
 10
-337.3609615388
 20
369.3687333636
 10
-332.7974511209
 20
372.3750128321
 10
-328.0007226291
 20
375.1938952975
 10
-322.9861391607
 20
377.8163804583
 10
-317.7697641673
 20
380.234093862
 10
-312.3683018508
 20
382.4392273001
 10
-306.7990636351
 20
384.4247474245
 10
-301.0798824849
 20
386.1842765383
 10
-295.2290831032
 20
387.7122118048
 10
-289.2654074254
 20
389.0036358408
 10
-283.207955015
 20
390.0544359259
 10
-277.0761327716
 20
390.8612145953
 10
-270.8895822885
 20
391.4214088492
 10
-264.6681207131
 20
391.733200746
 10
-258.4316770677
 20
391.7956068091
 10
-252.2002283382
 20
391.6084184222
 10
-245.9937363761
 20
391.172261434
 10
-239.8320829394
 20
390.4885067515
 10
-233.7350027534
 20
389.5593597464
 10
-227.7220321718
 20
388.3877708487
 10
-221.8124253574
 20
386.9775249533
 10
-216.0251198235
 20
385.3331222109
 10
-210.3786488893
 20
383.4598376326
 10
-204.8910988393
 20
381.3636912875
 10
-199.5800530436
 20
379.0513290934
 10
-194.4625211778
 20
376.5302314333
 10
-189.5548982444
 20
373.8084449343
 10
-184.8729086938
 20
370.8947016768
 10
-180.4315356436
 20
367.7982999853
 10
-176.2450246039
 20
364.5291938357
 10
-172.3267717185
 20
361.0978438429
 10
-168.6893386665
 20
357.5152470641
 10
-165.3443707052
 20
353.7928773932
 10
-162.3025817695
 20
349.942625957
 10
-159.5737172189
 20
345.9768905215
 10
-157.166524035
 20
341.9083072714
 10
-155.0887135687
 20
337.7499594263
 10
-153.3469317379
 20
333.5151686243
 10
-151.9467590275
 20
329.2174651198
 10
-150.8926881376
 20
324.8706175856
 10
-150.1880941811
 20
320.4885735087
 10
-149.835234684
 20
316.0853697829
 10
-149.835234684
 20
311.6751029066
 10
-150.1880941811
 20
307.2718991808
 10
-150.8926881376
 20
302.8898551039
 10
-151.9467590275
 20
298.5430075697
 10
-153.3469317379
 20
294.2453040652
 10
-155.0887135687
 20
290.0104834608
 10
-157.166524035
 20
285.8521654181
 10
-159.5737172189
 20
281.783582168
 10
-162.3025817695
 20
277.8178467326
 10
-165.3443707052
 20
273.9675952963
 10
-168.6893386665
 20
270.2452256255
 10
-172.3267717185
 20
266.6626288466
 10
-176.2450246039
 20
263.2312788538
 10
-180.4315356436
 20
259.9621727042
 10
-184.8729086938
 20
256.8657710127
 10
-189.5548982444
 20
253.9520277552
 10
-194.4625211778
 20
251.2302412562
 10
-199.5800530436
 20
248.7091435961
 10
-204.8910988393
 20
246.3967814021
 10
-210.3786488893
 20
244.3006350569
 10
-216.0251198235
 20
242.4273504786
 10
-221.8124253574
 20
240.7829477362
 10
-227.7220321718
 20
239.3727018408
 10
-233.7350027534
 20
238.2011129431
 10
-239.8320829394
 20
237.271965938
 10
-245.9937363761
 20
236.5882112555
 10
-252.2002283382
 20
236.1520542673
 10
-258.4316770677
 20
235.9648658804
 10
-264.6681207131
 20
236.0272719435
 10
-270.8895822885
 20
236.3390638403
 10
-277.0761327716
 20
236.8992580943
 10
-283.207955015
 20
237.7060367636
 10
-289.2654074254
 20
238.7568070464
 10
-295.2290831032
 20
240.0482608847
 10
-301.0798824849
 20
241.5761961512
 10
-306.7990636351
 20
243.335725265
 10
-312.3683018508
 20
245.3212453894
 10
-317.7697641673
 20
247.5263788275
 10
-322.9861391607
 20
249.9440624289
 10
-328.0007226291
 20
252.566577392
 10
-332.7974511209
 20
255.3854598574
 10
-337.3609615388
 20
258.3917393259
 10
-341.6766358438
 20
261.5757598452
 10
-345.7306383076
 20
264.9273290209
 10
-349.5099974695
 20
268.435718017
 10
-353.0025986853
 20
272.089691358
 10
-356.1972586336
 20
275.8775069289
 10
-359.0837327662
 20
279.7870649866
 10
-361.6527898135
 20
283.8058187537
 10
-363.8961968842
 20
287.920923429
 10
-365.8067567172
 20
292.1191765837
 10
-367.3783598366
 20
296.3871671728
 10
-368.6059771004
 20
300.7111563258
 10
-369.4856597009
 20
305.0773455672
 10
-370.0145987692
 20
309.4717278056
 10
-370.1911030236
 20
313.8802363448
  0
LINE
  5
96
330
1F
100
AcDbEntity
  8
0
  6
Continuous
 62
     7
370
    25
100
AcDbLine
 10
-384.9911002341
 20
-54.1197643705
 30
0.0
 11
-134.9911002341
 21
-54.1197643705
 31
0.0
  0
LWPOLYLINE
  5
97
330
1F
100
AcDbEntity
  8
0
  6
Continuous
 62
     1
370
    25
100
AcDbPolyline
 90
       31
 70
   128
 43
0.0
 10
-259.9911002341
 20
107.1035428814
 10
-253.3383282731
 20
107.2288169436
 10
-246.704414663
 20
107.6042815022
 10
-240.1081623408
 20
108.2288636736
 10
-233.5682717982
 20
109.100820022
 10
-227.1032800796
 20
110.2176471524
 10
-220.7315100255
 20
111.5762009196
 10
-214.4710292938
 20
113.1726219229
 10
-208.3395777169
 20
115.0023802094
 10
-202.3545374992
 20
117.0603050761
 10
-196.5328736129
 20
119.3405403666
 10
-190.8910928192
 20
121.8366487793
 10
-185.4451803389
 20
124.5415373616
 10
-180.2105737748
 20
127.4475320153
 10
-175.2021221342
 20
130.5464222006
 10
-170.4340113225
 20
133.8293864302
 10
-165.9197566929
 20
137.2871561818
 10
-161.6721583429
 20
140.90991159
 10
-157.7032564106
 20
144.687385755
 10
-154.0242938223
 20
148.6088647417
 10
-150.6457162919
 20
152.663232284
 10
-147.5770829144
 20
156.8390144877
 10
-144.8271034184
 20
161.1243649296
 10
-142.4035636607
 20
165.5071242623
 10
-140.3133479777
 20
169.9748798184
 10
-138.5623646798
 20
174.5149805121
 10
-137.1555833044
 20
179.1145219378
 10
-136.0969973626
 20
183.7604953818
 10
-135.3896019879
 20
188.4397282175
 10
-135.0354013863
 20
193.1389435105
 10
-134.9911002341
 20
195.4918815665
  0
LWPOLYLINE
  5
98
330
1F
100
AcDbEntity
  8
0
  6
Continuous
 62
     1
370
    25
100
AcDbPolyline
 90
       31
 70
   128
 43
0.0
 10
-384.9911002341
 20
195.4918815665
 10
-384.9467990818
 20
193.1389435105
 10
-384.5925984803
 20
188.4397282175
 10
-383.8852031055
 20
183.7604953818
 10
-382.8266171637
 20
179.1145219378
 10
-381.4198357883
 20
174.5149805121
 10
-379.6688524905
 20
169.9748798184
 10
-377.5786368075
 20
165.5071242623
 10
-375.1550970497
 20
161.1243649296
 10
-372.4051175537
 20
156.8390144877
 10
-369.3364841762
 20
152.663232284
 10
-365.9579066458
 20
148.6088647417
 10
-362.2789440575
 20
144.687385755
 10
-358.3100421253
 20
140.90991159
 10
-354.0624437752
 20
137.2871561818
 10
-349.5481891456
 20
133.8293864302
 10
-344.7800783339
 20
130.5464222006
 10
-339.7716266933
 20
127.4475320153
 10
-334.5370201292
 20
124.5415373616
 10
-329.0911076489
 20
121.8366487793
 10
-323.4493268552
 20
119.3405403666
 10
-317.6276629689
 20
117.0603050761
 10
-311.6426227513
 20
115.0023802094
 10
-305.5111711743
 20
113.1726219229
 10
-299.2506904426
 20
111.5762009196
 10
-292.8789203885
 20
110.2176471524
 10
-286.41392867
 20
109.100820022
 10
-279.8740381273
 20
108.2288636736
 10
-273.2777858051
 20
107.6042815022
 10
-266.643872195
 20
107.2288169436
 10
-259.9911002341
 20
107.1035428814
  0
LWPOLYLINE
  5
99
330
1F
100
AcDbEntity
  8
0
  6
Continuous
 62
     1
370
    25
100
AcDbPolyline
 90
       27
 70
   128
 43
0.0
 10
-331.657966775
 20
254.6860589556
 10
-328.0007226291
 20
256.8055405192
 10
-322.9861391607
 20
259.4280554823
 10
-317.7697641673
 20
261.8457390837
 10
-312.3683018508
 20
264.0508725218
 10
-306.7990636351
 20
266.0363926463
 10
-301.0798824849
 20
267.7959515623
 10
-295.2290831032
 20
269.3238868288
 10
-289.2654074254
 20
270.6153108649
 10
-283.207955015
 20
271.6660811476
 10
-277.0761327716
 20
272.472859817
 10
-270.8895822885
 20
273.0330540709
 10
-264.6681207131
 20
273.3448459677
 10
-258.4316770677
 20
273.4072520308
 10
-252.2002283382
 20
273.2200636439
 10
-245.9937363761
 20
272.7839066557
 10
-239.8320829394
 20
272.1001519732
 10
-233.7350027534
 20
271.1710049681
 10
-227.7220321718
 20
269.9994160704
 10
-221.8124253574
 20
268.589170175
 10
-216.0251198235
 20
266.944797235
 10
-210.3786488893
 20
265.0715126566
 10
-204.8910988393
 20
262.9753365092
 10
-199.5800530436
 20
260.6630041174
 10
-194.4625211778
 20
258.141876655
 10
-189.5548982444
 20
255.420090156
 10
-188.3242336932
 20
254.6860589556
  0
LINE
  5
9A
330
1F
100
AcDbEntity
  8
0
  6
Continuous
 62
     1
370
    25
100
AcDbLine
 10
-259.9911002341
 20
107.1035428814
 30
0.0
 11
-134.9911002341
 21
107.1035428814
 31
0.0
  0
LINE
  5
9B
330
1F
100
AcDbEntity
  8
0
  6
Continuous
 62
     1
370
    25
100
AcDbLine
 10
-384.9911002341
 20
107.1035428814
 30
0.0
 11
-259.9911002341
 21
107.1035428814
 31
0.0
  0
LINE
  5
9C
330
1F
100
AcDbEntity
  8
0
  6
Continuous
 62
     7
370
    25
100
AcDbLine
 10
265.5672896427
 20
775.7050343905
 30
0.0
 11
155.5177699548
 21
775.7050343905
 31
0.0
  0
LINE
  5
9D
330
1F
100
AcDbEntity
  8
0
  6
Continuous
 62
     7
370
    25
100
AcDbLine
 10
155.5177699548
 20
550.7050403509
 30
0.0
 11
265.5672896427
 21
550.7050403509
 31
0.0
  0
LINE
  5
9E
330
1F
100
AcDbEntity
  8
0
  6
Continuous
 62
     7
370
    25
100
AcDbLine
 10
155.5177699548
 20
775.7050343905
 30
0.0
 11
122.567282967
 21
775.7050343905
 31
0.0
  0
LINE
  5
9F
330
1F
100
AcDbEntity
  8
0
  6
Continuous
 62
     7
370
    25
100
AcDbLine
 10
122.567282967
 20
550.7050403509
 30
0.0
 11
155.5177699548
 21
550.7050403509
 31
0.0
  0
CIRCLE
  5
A0
330
1F
100
AcDbEntity
  8
0
  6
Continuous
 62
     7
370
    25
100
AcDbCircle
 10
122.567282967
 20
663.2050373707
 30
0.0
 40
99.10000000000002
  0
CIRCLE
  5
A1
330
1F
100
AcDbEntity
  8
0
  6
Continuous
 62
     7
370
    25
100
AcDbCircle
 10
122.567282967
 20
663.2050373707
 30
0.0
 40
112.5
  0
LWPOLYLINE
  5
A2
330
1F
100
AcDbEntity
  8
0
  6
Continuous
 62
     7
370
    25
100
AcDbPolyline
 90
       58
 70
   128
 43
0.0
 10
265.5672896427
 20
775.7050343905
 10
270.0276542228
 20
775.528053299
 10
274.4739968103
 20
774.9976613674
 10
278.8923252147
 20
774.1155275259
 10
283.2687217515
 20
772.884430841
 10
287.5894177478
 20
771.308238164
 10
291.8408233446
 20
769.3919115815
 10
296.009557299
 20
767.141486064
 10
300.0825214904
 20
764.5640322123
 10
304.0468860191
 20
761.6676711593
 10
307.890178613
 20
758.4615075145
 10
311.6002995294
 20
754.9556368146
 10
315.1655960601
 20
751.1610784683
 10
318.5748327297
 20
747.089783207
 10
321.817280702
 20
742.7545511279
 10
324.8827475828
 20
738.1690242443
 10
327.7615923208
 20
733.3476417813
 10
330.44475501
 20
728.3055582199
 10
332.923786692
 20
723.058647022
 10
335.1908791584
 20
717.6234112237
 10
337.2389245552
 20
712.0169573579
 10
339.0614557785
 20
706.2569246743
 10
340.6527358812
 20
700.3614329848
 10
342.0077878755
 20
694.3490323726
 10
343.122320227
 20
688.2386417244
 10
343.992846064
 20
682.0494872633
 10
344.6166086715
 20
675.8010410819
 10
344.9916559976
 20
669.5129624683
 10
345.1167959493
 20
663.2050373707
 10
344.9916559976
 20
656.8971122731
 10
344.6166086715
 20
650.6090336595
 10
343.992846064
 20
644.3605874781
 10
343.122320227
 20
638.171433017
 10
342.0077878755
 20
632.0610423688
 10
340.6527358812
 20
626.0486417565
 10
339.0614557785
 20
620.1531500671
 10
337.2389245552
 20
614.3931173835
 10
335.1908791584
 20
608.7866635177
 10
332.923786692
 20
603.3514277194
 10
330.44475501
 20
598.1045165215
 10
327.7615923208
 20
593.06243296
 10
324.8827475828
 20
588.2410504971
 10
321.817280702
 20
583.6555236135
 10
318.5748327297
 20
579.3202915344
 10
315.1655960601
 20
575.2489962731
 10
311.6002995294
 20
571.4544379268
 10
307.890178613
 20
567.9485672269
 10
304.0468860191
 20
564.7424035821
 10
300.0825214904
 20
561.8460425291
 10
296.009557299
 20
559.2685886774
 10
291.8408233446
 20
557.0181631599
 10
287.5894177478
 20
555.1018365774
 10
283.2687217515
 20
553.5256439004
 10
278.8923252147
 20
552.2945472155
 10
274.4739968103
 20
551.412413374
 10
270.0276542228
 20
550.8820214424
 10
265.5672896427
 20
550.7050403509
 10
265.5672896427
 20
550.7050403509
  0
ARC
  5
A3
330
1F
100
AcDbEntity
  8
0
  6
Continuous
 62
     7
370
    25
100
AcDbCircle
 10
329.1791996435
 20
663.2050373707
 30
0.0
 40
133.7706376684552
100
AcDbArc
 50
156.6819229132
 51
203.3180770868
  0
LWPOLYLINE
  5
A4
330
1F
100
AcDbEntity
  8
0
  6
Continuous
 62
     1
370
    25
100
AcDbPolyline
 90
       29
 70
   128
 43
0.0
 10
235.0672799867
 20
663.2050373707
 10
234.942140035
 20
656.8971122731
 10
234.5670927089
 20
650.6090336595
 10
233.9433301013
 20
644.3605874781
 10
233.072811715
 20
638.171433017
 10
231.9582719129
 20
632.0610423688
 10
230.6032273692
 20
626.0486417565
 10
229.0119398159
 20
620.1531500671
 10
227.189401142
 20
614.3931173835
 10
225.1413706463
 20
608.7866635177
 10
222.8742707294
 20
603.3514277194
 10
220.3952390474
 20
598.1045165215
 10
217.7120838088
 20
593.06243296
 10
214.8332390708
 20
588.2410504971
 10
211.76777219
 20
583.6555236135
 10
208.5253167671
 20
579.3202915344
 10
205.1160800975
 20
575.2489962731
 10
201.5507910174
 20
571.4544379268
 10
197.8406626504
 20
567.9485672269
 10
193.9973700565
 20
564.7424035821
 10
190.0330129784
 20
561.8460425291
 10
185.960048787
 20
559.2685886774
 10
181.791307382
 20
557.0181631599
 10
177.5399017852
 20
555.1018365774
 10
173.2192020637
 20
553.5256439004
 10
168.8428092521
 20
552.2945472155
 10
164.4244882983
 20
551.412413374
 10
159.9781457108
 20
550.8820214424
 10
155.5177699548
 20
550.7050403509
  0
LWPOLYLINE
  5
A5
330
1F
100
AcDbEntity
  8
0
  6
Continuous
 62
     1
370
    25
100
AcDbPolyline
 90
       29
 70
   128
 43
0.0
 10
155.5177699548
 20
775.7050343905
 10
159.9781457108
 20
775.528053299
 10
164.4244882983
 20
774.9976613674
 10
168.8428092521
 20
774.1155275259
 10
173.2192020637
 20
772.884430841
 10
177.5399017852
 20
771.308238164
 10
181.791307382
 20
769.3919115815
 10
185.960048787
 20
767.141486064
 10
190.0330129784
 20
764.5640322123
 10
193.9973700565
 20
761.6676711593
 10
197.8406626504
 20
758.4615075145
 10
201.5507910174
 20
754.9556368146
 10
205.1160800975
 20
751.1610784683
 10
208.5253167671
 20
747.089783207
 10
211.76777219
 20
742.7545511279
 10
214.8332390708
 20
738.1690242443
 10
217.7120838088
 20
733.3476417813
 10
220.3952390474
 20
728.3055582199
 10
222.8742707294
 20
723.058647022
 10
225.1413706463
 20
717.6234112237
 10
227.189401142
 20
712.0169573579
 10
229.0119398159
 20
706.2569246743
 10
230.6032273692
 20
700.3614329848
 10
231.9582719129
 20
694.3490323726
 10
233.072811715
 20
688.2386417244
 10
233.9433301013
 20
682.0494872633
 10
234.5670927089
 20
675.8010410819
 10
234.942140035
 20
669.5129624683
 10
235.0672799867
 20
663.2050373707
  0
LWPOLYLINE
  5
A6
330
1F
100
AcDbEntity
  8
0
  6
Continuous
 62
     1
370
    25
100
AcDbPolyline
 90
       48
 70
   128
 43
0.0
 10
141.8692320359
 20
760.4071223292
 10
138.904532395
 20
759.4797038589
 10
134.8630124476
 20
757.9023041878
 10
130.8954311308
 20
755.9859105501
 10
127.0159920451
 20
753.7373923812
 10
123.2385810936
 20
751.1647888575
 10
119.5767214295
 20
748.2773163471
 10
116.0435215343
 20
745.0853013549
 10
112.6516293508
 20
741.600180522
 10
109.4131860655
 20
737.8344186697
 10
106.339786179
 20
733.8015087996
 10
103.4424304735
 20
729.5158826862
 10
100.7314901572
 20
724.9928773496
 10
98.216671474
 20
720.2486903522
 10
95.9069747251
 20
715.3002978418
 10
93.8106700551
 20
710.1654210243
 10
91.9352601987
 20
704.8624404822
 10
90.2874599916
 20
699.410332844
 10
88.8731684309
 20
693.8286223564
 10
87.697444461
 20
688.1372858886
 10
86.7645013851
 20
682.3566989157
 10
86.0776770633
 20
676.5075535629
 10
85.6394301873
 20
670.6107896868
 10
85.4513291043
 20
664.6875145495
 10
85.5140480917
 20
658.7589327361
 10
85.8273636323
 20
652.8462669928
 10
86.3901506883
 20
646.9706823234
 10
87.2003976029
 20
641.1532131139
 10
88.255202375
 20
635.4146828059
 10
89.5507875603
 20
629.7756345127
 10
91.0825226229
 20
624.2562555823
 10
92.8449146223
 20
618.876303092
 10
94.8316622299
 20
613.6550367925
 10
97.0356482786
 20
608.6111464653
 10
99.4489863288
 20
603.7626885924
 10
102.0630355698
 20
599.1270193014
 10
104.8684380722
 20
594.7207310352
 10
107.8551541787
 20
590.559596673
 10
111.0124885809
 20
586.658517376
 10
114.3291406107
 20
583.0314555321
 10
117.7932373021
 20
579.6913900528
 10
121.3923778624
 20
576.6502865706
 10
125.1136786078
 20
573.919022933
 10
128.943818133
 20
571.5073817525
 10
132.8690852743
 20
569.4239908013
 10
136.875429168
 20
567.6763155613
 10
140.9485079121
 20
566.2706070695
 10
141.8692320359
 20
566.0029524121
  0
INSERT
  5
B2
330
1F
100
AcDbEntity
  8
FORMAT
 62
     7
100
AcDbBlockReference
  2
SW_CENTERMARKSYMBOL_0
 10
122.567282967
 20
663.2050373707
 30
0.0
  0
LINE
  5
B3
330
1F
100
AcDbEntity
  8
0
  6
Continuous
 62
     7
370
    25
100
AcDbLine
 10
410.6339132093
 20
97.2812040619
 30
0.0
 11
410.6339132093
 21
-54.1197643705
 31
0.0
  0
LINE
  5
B4
330
1F
100
AcDbEntity
  8
0
  6
Continuous
 62
     7
370
    25
100
AcDbLine
 10
635.6339072488
 20
-54.1197643705
 30
0.0
 11
635.6339072488
 21
97.2812040619
 31
0.0
  0
LINE
  5
B5
330
1F
100
AcDbEntity
  8
0
  6
Continuous
 62
     7
370
    25
100
AcDbLine
 10
635.6339072488
 20
97.2812040619
 30
0.0
 11
635.6339072488
 21
176.8307252697
 31
0.0
  0
LINE
  5
B6
330
1F
100
AcDbEntity
  8
0
  6
Continuous
 62
     7
370
    25
100
AcDbLine
 10
410.6339132093
 20
176.8307252697
 30
0.0
 11
410.6339132093
 21
97.2812040619
 31
0.0
  0
LINE
  5
B7
330
1F
100
AcDbEntity
  8
0
  6
Continuous
 62
     7
370
    25
100
AcDbLine
 10
410.6339132093
 20
286.8802263312
 30
0.0
 11
410.6339132093
 21
176.8307252697
 31
0.0
  0
LINE
  5
B8
330
1F
100
AcDbEntity
  8
0
  6
Continuous
 62
     7
370
    25
100
AcDbLine
 10
635.6339072488
 20
176.8307252697
 30
0.0
 11
635.6339072488
 21
286.8802263312
 31
0.0
  0
LINE
  5
B9
330
1F
100
AcDbEntity
  8
0
  6
Continuous
 62
     7
370
    25
100
AcDbLine
 10
410.6339132093
 20
-54.1197643705
 30
0.0
 11
635.6339072488
 21
-54.1197643705
 31
0.0
  0
LWPOLYLINE
  5
BA
330
1F
100
AcDbEntity
  8
0
  6
Continuous
 62
     7
370
    25
100
AcDbPolyline
 90
       57
 70
   128
 43
0.0
 10
410.6339132093
 20
286.8802263312
 10
410.8108943008
 20
291.3406207137
 10
411.3412862323
 20
295.7869484
 10
412.2234200738
 20
300.2052619032
 10
413.4545167587
 20
304.5816733412
 10
415.0307094358
 20
308.9023544363
 10
416.9470360182
 20
313.1537749342
 10
419.1974615358
 20
317.3225237898
 10
421.7749153875
 20
321.3954879813
 10
424.6712764405
 20
325.3598227076
 10
427.8774400852
 20
329.2031302027
 10
431.3833107851
 20
332.9132511191
 10
435.1778691314
 20
336.4785327486
 10
439.2491643928
 20
339.8877694182
 10
443.5843964718
 20
343.1302322916
 10
448.1699233554
 20
346.1956991724
 10
452.9913058184
 20
349.0745439104
 10
458.0333893798
 20
351.7577065997
 10
463.2803005777
 20
354.2367233805
 10
468.7155363761
 20
356.5038456492
 10
474.3219902418
 20
358.5518612437
 10
480.0820229254
 20
360.374392467
 10
485.9775146149
 20
361.9656874709
 10
491.9899152271
 20
363.3207394652
 10
498.1003058754
 20
364.4352867178
 10
504.2894603364
 20
365.3057827525
 10
510.5379065178
 20
365.92954536
 10
516.8259851314
 20
366.3046075873
 10
523.133910229
 20
366.429747539
 10
529.4418353267
 20
366.3046075873
 10
535.7299139403
 20
365.92954536
 10
541.9783601217
 20
365.3057827525
 10
548.1675145827
 20
364.4352867178
 10
554.2779052309
 20
363.3207394652
 10
560.2903058432
 20
361.9656874709
 10
566.1857975326
 20
360.374392467
 10
571.9458302162
 20
358.5518612437
 10
577.552284082
 20
356.5038456492
 10
582.9875198804
 20
354.2367233805
 10
588.2344310783
 20
351.7577065997
 10
593.2765146397
 20
349.0745439104
 10
598.0978971027
 20
346.1956991724
 10
602.6834239863
 20
343.1302322916
 10
607.0186560653
 20
339.8877694182
 10
611.0899513267
 20
336.4785327486
 10
614.8845096729
 20
332.9132511191
 10
618.3903803728
 20
329.2031302027
 10
621.5965440176
 20
325.3598227076
 10
624.4929050706
 20
321.3954879813
 10
627.0703589223
 20
317.3225237898
 10
629.3207844399
 20
313.1537749342
 10
631.2371110223
 20
308.9023544363
 10
632.8133036993
 20
304.5816733412
 10
634.0444003843
 20
300.2052619032
 10
634.9265342258
 20
295.7869484
 10
635.4569261573
 20
291.3406207137
 10
635.6339072488
 20
286.8802263312
  0
LINE
  5
BB
330
1F
100
AcDbEntity
  8
0
  6
Continuous
 62
     1
370
    25
100
AcDbLine
 10
410.6339132093
 20
97.2812040619
 30
0.0
 11
635.6339072488
 21
97.2812040619
 31
0.0
  0
LWPOLYLINE
  5
BC
330
1F
100
AcDbEntity
  8
0
  6
Continuous
 62
     1
370
    25
100
AcDbPolyline
 90
       57
 70
   128
 43
0.0
 10
410.6339132093
 20
176.8307252697
 10
410.8108943008
 20
181.2911047511
 10
411.3412862323
 20
185.7374473385
 10
412.2234200738
 20
190.1557608418
 10
413.4545167587
 20
194.5321573786
 10
415.0307094358
 20
198.8528384737
 10
416.9470360182
 20
203.1042589716
 10
419.1974615358
 20
207.2730078272
 10
421.7749153875
 20
211.3459720187
 10
424.6712764405
 20
215.3103365473
 10
427.8774400852
 20
219.1536142401
 10
431.3833107851
 20
222.8637351565
 10
435.1778691314
 20
226.4290465884
 10
439.2491643928
 20
229.8382832579
 10
443.5843964718
 20
233.080716329
 10
448.1699233554
 20
236.1461832098
 10
452.9913058184
 20
239.0250279478
 10
458.0333893798
 20
241.7081906371
 10
463.2803005777
 20
244.1872074179
 10
468.7155363761
 20
246.4543296866
 10
474.3219902418
 20
248.5023452811
 10
480.0820229254
 20
250.3248765044
 10
485.9775146149
 20
251.9161715083
 10
491.9899152271
 20
253.2712235026
 10
498.1003058754
 20
254.3857707552
 10
504.2894603364
 20
255.2562965922
 10
510.5379065178
 20
255.8800591997
 10
516.8259851314
 20
256.2550916247
 10
523.133910229
 20
256.3802315764
 10
529.4418353267
 20
256.2550916247
 10
535.7299139403
 20
255.8800591997
 10
541.9783601217
 20
255.2562965922
 10
548.1675145827
 20
254.3857707552
 10
554.2779052309
 20
253.2712235026
 10
560.2903058432
 20
251.9161715083
 10
566.1857975326
 20
250.3248765044
 10
571.9458302162
 20
248.5023452811
 10
577.552284082
 20
246.4543296866
 10
582.9875198804
 20
244.1872074179
 10
588.2344310783
 20
241.7081906371
 10
593.2765146397
 20
239.0250279478
 10
598.0978971027
 20
236.1461832098
 10
602.6834239863
 20
233.080716329
 10
607.0186560653
 20
229.8382832579
 10
611.0899513267
 20
226.4290465884
 10
614.8845096729
 20
222.8637351565
 10
618.3903803728
 20
219.1536142401
 10
621.5965440176
 20
215.3103365473
 10
624.4929050706
 20
211.3459720187
 10
627.0703589223
 20
207.2730078272
 10
629.3207844399
 20
203.1042589716
 10
631.2371110223
 20
198.8528384737
 10
632.8133036993
 20
194.5321573786
 10
634.0444003843
 20
190.1557608418
 10
634.9265342258
 20
185.7374473385
 10
635.4569261573
 20
181.2911047511
 10
635.6339072488
 20
176.8307252697
  0
LINE
  5
BD
330
1F
100
AcDbEntity
  8
0
  6
Continuous
 62
     7
370
    25
100
AcDbLine
 10
265.5672896427
 20
-227.2213205911
 30
0.0
 11
155.5177699548
 21
-227.2213205911
 31
0.0
  0
LINE
  5
BE
330
1F
100
AcDbEntity
  8
0
  6
Continuous
 62
     7
370
    25
100
AcDbLine
 10
155.5177699548
 20
-452.2213146306
 30
0.0
 11
265.5672896427
 21
-452.2213146306
 31
0.0
  0
LINE
  5
BF
330
1F
100
AcDbEntity
  8
0
  6
Continuous
 62
     7
370
    25
100
AcDbLine
 10
122.567282967
 20
-452.2213146306
 30
0.0
 11
155.5177699548
 21
-452.2213146306
 31
0.0
  0
LINE
  5
C0
330
1F
100
AcDbEntity
  8
0
  6
Continuous
 62
     7
370
    25
100
AcDbLine
 10
155.5177699548
 20
-227.2213205911
 30
0.0
 11
122.567282967
 21
-227.2213205911
 31
0.0
  0
LWPOLYLINE
  5
C1
330
1F
100
AcDbEntity
  8
0
  6
Continuous
 62
     7
370
    25
100
AcDbPolyline
 90
      113
 70
   128
 43
0.0
 10
265.5672896427
 20
-452.2213146306
 10
270.0276542228
 20
-452.0443335391
 10
274.4739968103
 20
-451.5139416076
 10
278.8923252147
 20
-450.6318077661
 10
283.2687217515
 20
-449.4007110811
 10
287.5894177478
 20
-447.8245184041
 10
291.8408233446
 20
-445.9081918217
 10
296.009557299
 20
-443.6577663041
 10
300.0825214904
 20
-441.0803124524
 10
304.0468860191
 20
-438.1839513994
 10
307.890178613
 20
-434.9777877546
 10
311.6002995294
 20
-431.4719170547
 10
315.1655960601
 20
-427.6773587085
 10
318.5748327297
 20
-423.6060634471
 10
321.817280702
 20
-419.2708313681
 10
324.8827475828
 20
-414.6853044845
 10
327.7615923208
 20
-409.8639220215
 10
330.44475501
 20
-404.8218384601
 10
332.923786692
 20
-399.5749272622
 10
335.1908791584
 20
-394.1396914638
 10
337.2389245552
 20
-388.533237598
 10
339.0614557785
 20
-382.7732049144
 10
340.6527358812
 20
-376.877713225
 10
342.0077878755
 20
-370.8653126127
 10
343.122320227
 20
-364.7549219645
 10
343.992846064
 20
-358.5657675035
 10
344.6166086715
 20
-352.3173213221
 10
344.9916559976
 20
-346.0292427085
 10
345.1167959493
 20
-339.7213176108
 10
344.9916559976
 20
-333.4133925132
 10
344.6166086715
 20
-327.1253138996
 10
343.992846064
 20
-320.8768677182
 10
343.122320227
 20
-314.6877132572
 10
342.0077878755
 20
-308.5773226089
 10
340.6527358812
 20
-302.5649219967
 10
339.0614557785
 20
-296.6694303072
 10
337.2389245552
 20
-290.9093976236
 10
335.1908791584
 20
-285.3029437579
 10
332.923786692
 20
-279.8677079595
 10
330.44475501
 20
-274.6207967616
 10
327.7615923208
 20
-269.5787132002
 10
324.8827475828
 20
-264.7573307372
 10
321.817280702
 20
-260.1718038536
 10
318.5748327297
 20
-255.8365717746
 10
315.1655960601
 20
-251.7652765132
 10
311.6002995294
 20
-247.9707181669
 10
307.890178613
 20
-244.464847467
 10
304.0468860191
 20
-241.2586838222
 10
300.0825214904
 20
-238.3623227693
 10
296.009557299
 20
-235.7848689176
 10
291.8408233446
 20
-233.5344434
 10
287.5894177478
 20
-231.6181168176
 10
283.2687217515
 20
-230.0419241405
 10
278.8923252147
 20
-228.8108274556
 10
274.4739968103
 20
-227.9286936141
 10
270.0276542228
 20
-227.3983016826
 10
265.5672896427
 20
-227.2213205911
 10
261.1069101614
 20
-227.3983016826
 10
256.6605675739
 20
-227.9286936141
 10
252.2422391695
 20
-228.8108274556
 10
247.8658575338
 20
-230.0419241405
 10
243.5451540869
 20
-231.6181168176
 10
239.2937410396
 20
-233.5344434
 10
235.1249996346
 20
-235.7848689176
 10
231.0520428937
 20
-238.3623227693
 10
227.0876783651
 20
-241.2586838222
 10
223.2443932217
 20
-244.464847467
 10
219.5342648548
 20
-247.9707181669
 10
215.9689757746
 20
-251.7652765132
 10
212.5597391051
 20
-255.8365717746
 10
209.3172836822
 20
-260.1718038536
 10
206.2518093508
 20
-264.7573307372
 10
203.3729720634
 20
-269.5787132002
 10
200.6898168248
 20
-274.6207967616
 10
198.2107851428
 20
-279.8677079595
 10
195.9436852258
 20
-285.3029437579
 10
193.8956472796
 20
-290.9093976236
 10
192.0731160563
 20
-296.6694303072
 10
190.4818210524
 20
-302.5649219967
 10
189.1267765087
 20
-308.5773226089
 10
188.0122441572
 20
-314.6877132572
 10
187.1417257708
 20
-320.8768677182
 10
186.5179631632
 20
-327.1253138996
 10
186.1429158371
 20
-333.4133925132
 10
186.0177684349
 20
-339.7213176108
 10
186.1429158371
 20
-346.0292427085
 10
186.5179631632
 20
-352.3173213221
 10
187.1417257708
 20
-358.5657675035
 10
188.0122441572
 20
-364.7549219645
 10
189.1267765087
 20
-370.8653126127
 10
190.4818210524
 20
-376.877713225
 10
192.0731160563
 20
-382.7732049144
 10
193.8956472796
 20
-388.533237598
 10
195.9436852258
 20
-394.1396914638
 10
198.2107851428
 20
-399.5749272622
 10
200.6898168248
 20
-404.8218384601
 10
203.3729720634
 20
-409.8639220215
 10
206.2518093508
 20
-414.6853044845
 10
209.3172836822
 20
-419.2708313681
 10
212.5597391051
 20
-423.6060634471
 10
215.9689757746
 20
-427.6773587085
 10
219.5342648548
 20
-431.4719170547
 10
223.2443932217
 20
-434.9777877546
 10
227.0876783651
 20
-438.1839513994
 10
231.0520428937
 20
-441.0803124524
 10
235.1249996346
 20
-443.6577663041
 10
239.2937410396
 20
-445.9081918217
 10
243.5451540869
 20
-447.8245184041
 10
247.8658575338
 20
-449.4007110811
 10
252.2422391695
 20
-450.6318077661
 10
256.6605675739
 20
-451.5139416076
 10
261.1069101614
 20
-452.0443335391
 10
265.5672896427
 20
-452.2213146306
  0
LWPOLYLINE
  5
C2
330
1F
100
AcDbEntity
  8
0
  6
Continuous
 62
     7
370
    25
100
AcDbPolyline
 90
      106
 70
   128
 43
0.0
 10
265.5672896427
 20
-438.8213187672
 10
261.3765466732
 20
-438.6439427949
 10
257.2008240741
 20
-438.1124481774
 10
253.0550379079
 20
-437.2287422634
 10
248.9540446323
 20
-435.995984099
 10
244.9125293416
 20
-434.4185844279
 10
240.9449461621
 20
-432.5021907903
 10
237.0655033511
 20
-430.2536726213
 10
233.2880962413
 20
-427.6810690976
 10
229.6262327355
 20
-424.7935965873
 10
226.093033306
 20
-421.601581595
 10
222.7011415881
 20
-418.1164607621
 10
219.4627020281
 20
-414.3506989099
 10
216.389300279
 20
-410.3177890397
 10
213.4919408482
 20
-406.0321629263
 10
210.7810023945
 20
-401.5091575898
 10
208.2661855739
 20
-396.7649705924
 10
205.9564906877
 20
-391.8165780819
 10
203.8601804298
 20
-386.6817012645
 10
201.984772436
 20
-381.3787207223
 10
200.3369722289
 20
-375.9266130842
 10
198.9226806682
 20
-370.3449025966
 10
197.7469566983
 20
-364.6535661287
 10
196.8140173477
 20
-358.8729791559
 10
196.1271930259
 20
-353.023833803
 10
195.6889424246
 20
-347.1270699269
 10
195.5008450669
 20
-341.2037947896
 10
195.5635640543
 20
-335.2752129763
 10
195.8768758696
 20
-329.3625472329
 10
196.4396629256
 20
-323.4869625635
 10
197.2499061149
 20
-317.6694933541
 10
198.3047146123
 20
-311.930963046
 10
199.6003035229
 20
-306.2919147528
 10
201.1320311349
 20
-300.7725358225
 10
202.8944287222
 20
-295.3925833322
 10
204.8811781925
 20
-290.1713170327
 10
207.0851642412
 20
-285.1274267055
 10
209.4984967035
 20
-280.2789688326
 10
212.1125478071
 20
-275.6432995416
 10
214.9179521721
 20
-271.2370112754
 10
217.904666416
 20
-267.0758769132
 10
221.0619989556
 20
-263.1747976161
 10
224.3786547106
 20
-259.5477357722
 10
227.8427500051
 20
-256.2076702929
 10
231.4418870729
 20
-253.1665668107
 10
235.1631913107
 20
-250.4353031732
 10
238.9933336299
 20
-248.0236619926
 10
242.9185975116
 20
-245.9402710415
 10
246.9249386114
 20
-244.1925958014
 10
250.9980220121
 20
-242.7868873096
 10
255.123259477
 20
-241.7281821586
 10
259.2858690542
 20
-241.0202652431
 10
263.4709793848
 20
-240.6656697608
 10
267.6635849994
 20
-240.6656697608
 10
271.84869533
 20
-241.0202652431
 10
276.0113198083
 20
-241.7281821586
 10
280.1365423721
 20
-242.7868873096
 10
284.2096257728
 20
-244.1925958014
 10
288.2159668726
 20
-245.9402710415
 10
292.1412307542
 20
-248.0236619926
 10
295.971380524
 20
-250.4353031732
 10
299.6926773113
 20
-253.1665668107
 10
303.2918143791
 20
-256.2076702929
 10
306.7559171241
 20
-259.5477357722
 10
310.072557978
 20
-263.1747976161
 10
313.2299054187
 20
-267.0758769132
 10
316.2166196626
 20
-271.2370112754
 10
319.0220165771
 20
-275.6432995416
 10
321.6360676807
 20
-280.2789688326
 10
324.049400143
 20
-285.1274267055
 10
326.2533861917
 20
-290.1713170327
 10
328.2401431125
 20
-295.3925833322
 10
330.0025332492
 20
-300.7725358225
 10
331.5342683118
 20
-306.2919147528
 10
332.8298497718
 20
-311.930963046
 10
333.8846582693
 20
-317.6694933541
 10
334.6949089092
 20
-323.4869625635
 10
335.2576959651
 20
-329.3625472329
 10
335.5710077804
 20
-335.2752129763
 10
335.6337267679
 20
-341.2037947896
 10
335.4456294101
 20
-347.1270699269
 10
335.0073713583
 20
-353.023833803
 10
334.3205470365
 20
-358.8729791559
 10
333.3876151365
 20
-364.6535661287
 10
332.211883716
 20
-370.3449025966
 10
330.7975996059
 20
-375.9266130842
 10
329.1497993988
 20
-381.3787207223
 10
327.2743839544
 20
-386.6817012645
 10
325.1780736965
 20
-391.8165780819
 10
322.8683788103
 20
-396.7649705924
 10
320.3535694402
 20
-401.5091575898
 10
317.6426160854
 20
-406.0321629263
 10
314.7452641052
 20
-410.3177890397
 10
311.6718698066
 20
-414.3506989099
 10
308.4334302467
 20
-418.1164607621
 10
305.0415385288
 20
-421.601581595
 10
301.5083241981
 20
-424.7935965873
 10
297.8464681428
 20
-427.6810690976
 10
294.0690684837
 20
-430.2536726213
 10
290.1896256727
 20
-432.5021907903
 10
286.2220424932
 20
-434.4185844279
 10
282.1805197519
 20
-435.995984099
 10
278.0795264762
 20
-437.2287422634
 10
273.9337403101
 20
-438.1124481774
 10
269.758017711
 20
-438.6439427949
 10
265.5672896427
 20
-438.8213187672
  0
ARC
  5
C3
330
1F
100
AcDbEntity
  8
0
  6
Continuous
 62
     7
370
    25
100
AcDbCircle
 10
122.567282967
 20
-339.7213176108
 30
0.0
 40
112.5000000000005
100
AcDbArc
 50
90.0
 51
270.0
  0
ARC
  5
C4
330
1F
100
AcDbEntity
  8
0
  6
Continuous
 62
     7
370
    25
100
AcDbCircle
 10
122.567282967
 20
-339.7213176108
 30
0.0
 40
99.10000000000002
100
AcDbArc
 50
327.7021780022
 51
32.2978219978
  0
LWPOLYLINE
  5
C5
330
1F
100
AcDbEntity
  8
0
  6
Continuous
 62
     1
370
    25
100
AcDbPolyline
 90
       57
 70
   128
 43
0.0
 10
155.5177699548
 20
-227.2213205911
 10
151.0573941988
 20
-227.3983016826
 10
146.6110497486
 20
-227.9286936141
 10
142.1927325201
 20
-228.8108274556
 10
137.8163378459
 20
-230.0419241405
 10
133.495639987
 20
-231.6181168176
 10
129.2442315963
 20
-233.5344434
 10
125.0754894928
 20
-235.7848689176
 10
121.0025299579
 20
-238.3623227693
 10
117.0381684561
 20
-241.2586838222
 10
113.1948772591
 20
-244.464847467
 10
109.4847507548
 20
-247.9707181669
 10
105.919459812
 20
-251.7652765132
 10
102.5102250051
 20
-255.8365717746
 10
99.2677695823
 20
-260.1718038536
 10
96.2022989762
 20
-264.7573307372
 10
93.3234561008
 20
-269.5787132002
 10
90.6403008622
 20
-274.6207967616
 10
88.1612729054
 20
-279.8677079595
 10
85.8941729885
 20
-285.3029437579
 10
83.8461350423
 20
-290.9093976236
 10
82.023603819
 20
-296.6694303072
 10
80.4323125404
 20
-302.5649219967
 10
79.0772642714
 20
-308.5773226089
 10
77.9627281946
 20
-314.6877132572
 10
77.0922098082
 20
-320.8768677182
 10
76.4684472006
 20
-327.1253138996
 10
76.0934035998
 20
-333.4133925132
 10
75.9682561976
 20
-339.7213176108
 10
76.0934035998
 20
-346.0292427085
 10
76.4684472006
 20
-352.3173213221
 10
77.0922098082
 20
-358.5657675035
 10
77.9627281946
 20
-364.7549219645
 10
79.0772642714
 20
-370.8653126127
 10
80.4323125404
 20
-376.877713225
 10
82.023603819
 20
-382.7732049144
 10
83.8461350423
 20
-388.533237598
 10
85.8941729885
 20
-394.1396914638
 10
88.1612729054
 20
-399.5749272622
 10
90.6403008622
 20
-404.8218384601
 10
93.3234561008
 20
-409.8639220215
 10
96.2022989762
 20
-414.6853044845
 10
99.2677695823
 20
-419.2708313681
 10
102.5102250051
 20
-423.6060634471
 10
105.919459812
 20
-427.6773587085
 10
109.4847507548
 20
-431.4719170547
 10
113.1948772591
 20
-434.9777877546
 10
117.0381684561
 20
-438.1839513994
 10
121.0025299579
 20
-441.0803124524
 10
125.0754894928
 20
-443.6577663041
 10
129.2442315963
 20
-445.9081918217
 10
133.495639987
 20
-447.8245184041
 10
137.8163378459
 20
-449.4007110811
 10
142.1927325201
 20
-450.6318077661
 10
146.6110497486
 20
-451.5139416076
 10
151.0573941988
 20
-452.0443335391
 10
155.5177699548
 20
-452.2213146306
  0
LWPOLYLINE
  5
C6
330
1F
100
AcDbEntity
  8
0
  6
Continuous
 62
     1
370
    25
100
AcDbPolyline
 90
       24
 70
   128
 43
0.0
 10
210.5425242108
 20
-278.3587679482
 10
211.5865517181
 20
-280.2789688326
 10
213.999891631
 20
-285.1274267055
 10
216.2038776797
 20
-290.1713170327
 10
218.1906271499
 20
-295.3925833322
 10
219.9530172866
 20
-300.7725358225
 10
221.4847523492
 20
-306.2919147528
 10
222.7803412598
 20
-311.930963046
 10
223.8351423067
 20
-317.6694933541
 10
224.6453929466
 20
-323.4869625635
 10
225.2081800025
 20
-329.3625472329
 10
225.5214918178
 20
-335.2752129763
 10
225.5842108053
 20
-341.2037947896
 10
225.3961134475
 20
-347.1270699269
 10
224.9578628462
 20
-353.023833803
 10
224.2710385245
 20
-358.8729791559
 10
223.3380917233
 20
-364.6535661287
 10
222.1623752039
 20
-370.3449025966
 10
220.7480761927
 20
-375.9266130842
 10
219.1002759856
 20
-381.3787207223
 10
217.2248679918
 20
-386.6817012645
 10
215.1285651845
 20
-391.8165780819
 10
212.8188702982
 20
-396.7649705924
 10
210.5425242108
 20
-401.0838672734
  0
INSERT
  5
D2
330
1F
100
AcDbEntity
  8
FORMAT
 62
     7
100
AcDbBlockReference
  2
SW_CENTERMARKSYMBOL_1
 10
122.567282967
 20
-339.7213176108
 30
0.0
  0
LINE
  5
D3
330
1F
100
AcDbEntity
  8
0
  6
Continuous
 62
     7
370
    25
100
AcDbLine
 10
434.8745667659
 20
-385.188850782
 30
0.0
 11
434.8745667659
 21
-508.8139204661
 31
0.0
  0
LINE
  5
D4
330
1F
100
AcDbEntity
  8
0
  6
Continuous
 62
     7
370
    25
100
AcDbLine
 10
659.8745692372
 20
-508.8139204661
 30
0.0
 11
659.8745692372
 21
-385.188850782
 31
0.0
  0
LINE
  5
D5
330
1F
100
AcDbEntity
  8
0
  6
Continuous
 62
     7
370
    25
100
AcDbLine
 10
551.062975692
 20
-115.750335398
 30
0.0
 11
473.2462206398
 21
-250.5328886609
 31
0.0
  0
LINE
  5
D6
330
1F
100
AcDbEntity
  8
0
  6
Continuous
 62
     7
370
    25
100
AcDbLine
 10
668.1019396312
 20
-363.0329075337
 30
0.0
 11
745.9186986347
 21
-228.250327655
 31
0.0
  0
SPLINE
  5
D7
330
1F
100
AcDbEntity
  8
0
  6
Continuous
 62
     7
370
    25
100
AcDbSpline
210
0.0
220
0.0
230
1.0
 70
     8
 71
     3
 72
    25
 73
    21
 74
     0
 42
0.000000001
 43
0.00000001
 40
0.0
 40
0.0
 40
0.0
 40
0.0
 40
0.0341618056570446
 40
0.0928963512044473
 40
0.1516933210663488
 40
0.2105845250436172
 40
0.2696041972728189
 40
0.3287843611164458
 40
0.3881543378073136
 40
0.4477389622414088
 40
0.5075567951969183
 40
0.5676187619423685
 40
0.6279249624080716
 40
0.6884629399961909
 40
0.7492051201491621
 40
0.8101068278270028
 40
0.8710990770668692
 40
0.9320780302460391
 40
0.9885668992256368
 40
1.0
 40
1.0
 40
1.0
 40
1.0
 10
473.246220639833
 20
-250.5328886609443
 30
0.0
 10
472.4285745523215
 20
-251.9650153921023
 30
0.0
 10
470.205145882627
 20
-255.8594040295924
 30
0.0
 10
466.7432057176373
 20
-262.3112698119238
 30
0.0
 10
462.9194707963792
 20
-269.9102343256994
 30
0.0
 10
459.3122533427922
 20
-277.6151278879281
 30
0.0
 10
455.9227407022572
 20
-285.4184491676447
 30
0.0
 10
452.7572513719585
 20
-293.3156227593154
 30
0.0
 10
449.8214854692138
 20
-301.3011664409369
 30
0.0
 10
447.1221028574476
 20
-309.369438675999
 30
0.0
 10
444.6663455107694
 20
-317.5141714750265
 30
0.0
 10
442.4621453748075
 20
-325.7282081791412
 30
0.0
 10
440.518057784985
 20
-334.003218692025
 30
0.0
 10
438.8430838597582
 20
-342.3292795868775
 30
0.0
 10
437.4465478200072
 20
-350.6945982678201
 30
0.0
 10
436.3379873504816
 20
-359.0848780023756
 30
0.0
 10
435.5258127245366
 20
-367.4824832836538
 30
0.0
 10
435.0327640438058
 20
-375.6661799358874
 30
0.0
 10
434.8828193678783
 20
-381.5648370804489
 30
0.0
 10
434.8757557615168
 20
-384.6667201407932
 30
0.0
 10
434.8745667659141
 20
-385.1888507819933
 30
0.0
  0
SPLINE
  5
D8
330
1F
100
AcDbEntity
  8
0
  6
Continuous
 62
     7
370
    25
100
AcDbSpline
210
0.0
220
0.0
230
1.0
 70
     8
 71
     3
 72
    22
 73
    18
 74
     0
 42
0.000000001
 43
0.00000001
 40
0.0
 40
0.0
 40
0.0
 40
0.0
 40
0.0158591629901263
 40
0.0916706840976138
 40
0.1651228817767885
 40
0.2367796037004767
 40
0.3071579093429108
 40
0.3767167924675193
 40
0.4458521089467132
 40
0.5148898071630257
 40
0.5840811012372866
 40
0.6535558369258179
 40
0.7234260363741741
 40
0.7937513053511428
 40
0.8645320525476985
 40
0.9357180839723708
 40
1.0
 40
1.0
 40
1.0
 40
1.0
 10
659.8737526420405
 20
-385.2743014094922
 30
0.0
 10
659.8736342556741
 20
-385.2820718835748
 30
0.0
 10
659.8729499472272
 20
-385.3269875374058
 30
0.0
 10
659.8810434532569
 20
-385.1221056849662
 30
0.0
 10
659.9274237216871
 20
-384.6441463151874
 30
0.0
 10
660.0310747749917
 20
-383.8655093716569
 30
0.0
 10
660.2090974997702
 20
-382.8316557940958
 30
0.0
 10
660.4772510600935
 20
-381.5507505511433
 30
0.0
 10
660.8490397690348
 20
-380.0425337714663
 30
0.0
 10
661.3356362293199
 20
-378.3264867654491
 30
0.0
 10
661.94545184888
 20
-376.4258328775742
 30
0.0
 10
662.6836458025184
 20
-374.3667431894651
 30
0.0
 10
663.5520660994002
 20
-372.1783996499471
 30
0.0
 10
664.5482685950113
 20
-369.8915856453094
 30
0.0
 10
665.6688331879772
 20
-367.5408443583212
 30
0.0
 10
666.8533244825146
 20
-365.2369074434114
 30
0.0
 10
667.7033179892475
 20
-363.7421634402299
 30
0.0
 10
668.1066548098858
 20
-363.0328812055585
 30
0.0
  0
LWPOLYLINE
  5
D9
330
1F
100
AcDbEntity
  8
0
  6
Continuous
 62
     7
370
    25
100
AcDbPolyline
 90
      113
 70
   128
 43
0.0
 10
467.8250572254
 20
-462.8909653926
 10
472.4105783671
 20
-460.3882891827
 10
477.2319651269
 20
-458.0379781265
 10
482.2740466149
 20
-455.847427664
 10
487.5209565183
 20
-453.8235283704
 10
492.9561917118
 20
-451.9726503682
 10
498.5626484773
 20
-450.3006163359
 10
504.3226817734
 20
-448.8126855405
 10
510.2181750405
 20
-447.5135439531
 10
516.2305731288
 20
-446.407273075
 10
522.3409652739
 20
-445.497356781
 10
528.5301167081
 20
-444.7866569882
 10
534.778566124
 20
-444.2774121355
 10
541.0666388458
 20
-443.9712234975
 10
547.3745680016
 20
-443.8690521431
 10
553.6824971574
 20
-443.9712234975
 10
559.9705698792
 20
-444.2774121355
 10
566.219019295
 20
-444.7866569882
 10
572.4081707292
 20
-445.497356781
 10
578.5185628744
 20
-446.407273075
 10
584.5309609626
 20
-447.5135439531
 10
590.4264542298
 20
-448.8126855405
 10
596.1864875258
 20
-450.3006163359
 10
601.7929442914
 20
-451.9726503682
 10
607.2281794848
 20
-453.8235283704
 10
612.4750893882
 20
-455.847427664
 10
617.5171708762
 20
-458.0379781265
 10
622.338557636
 20
-460.3882891827
 10
626.9240787777
 20
-462.8909653926
 10
631.2593108595
 20
-465.5381304012
 10
635.3306101564
 20
-468.3214577329
 10
639.1251660019
 20
-471.2321894192
 10
642.6310422769
 20
-474.2611660329
 10
645.8372044096
 20
-477.3988605223
 10
648.7335661323
 20
-480.6353991214
 10
651.3110171403
 20
-483.9605955644
 10
653.561440214
 20
-487.3639913843
 10
655.4777652195
 20
-490.8348749208
 10
657.0539572551
 20
-494.3623292222
 10
658.2850587976
 20
-497.9352502934
 10
659.1671923369
 20
-501.5424033607
 10
659.6975840836
 20
-505.1724304757
 10
659.8745692372
 20
-508.8139204661
 10
659.6975840836
 20
-512.4554104564
 10
659.1671923369
 20
-516.0854375714
 10
658.2850587976
 20
-519.6925906388
 10
657.0539572551
 20
-523.26551171
 10
655.4777652195
 20
-526.7929660114
 10
653.561440214
 20
-530.2638495479
 10
651.3110171403
 20
-533.6672453677
 10
648.7335661323
 20
-536.9924418108
 10
645.8372044096
 20
-540.2289804098
 10
642.6310422769
 20
-543.3666748993
 10
639.1251660019
 20
-546.395651513
 10
635.3306101564
 20
-549.3063831993
 10
631.2593108595
 20
-552.089710531
 10
626.9240787777
 20
-554.7368755396
 10
622.338557636
 20
-557.2395517495
 10
617.5171708762
 20
-559.5898628057
 10
612.4750893882
 20
-561.7804132682
 10
607.2281794848
 20
-563.8043125618
 10
601.7929442914
 20
-565.655190564
 10
596.1864875258
 20
-567.3272245962
 10
590.4264542298
 20
-568.8151553917
 10
584.5309609626
 20
-570.1142969791
 10
578.5185628744
 20
-571.2205678572
 10
572.4081707292
 20
-572.1304841512
 10
566.219019295
 20
-572.841183944
 10
559.9705698792
 20
-573.3504287967
 10
553.6824971574
 20
-573.6566174346
 10
547.3745680016
 20
-573.758788789
 10
541.0666388458
 20
-573.6566174346
 10
534.778566124
 20
-573.3504287967
 10
528.5301167081
 20
-572.841183944
 10
522.3409652739
 20
-572.1304841512
 10
516.2305731288
 20
-571.2205678572
 10
510.2181750405
 20
-570.1142969791
 10
504.3226817734
 20
-568.8151553917
 10
498.5626484773
 20
-567.3272245962
 10
492.9561917118
 20
-565.655190564
 10
487.5209565183
 20
-563.8043125618
 10
482.2740466149
 20
-561.7804132682
 10
477.2319651269
 20
-559.5898628057
 10
472.4105783671
 20
-557.2395517495
 10
467.8250572254
 20
-554.7368755396
 10
463.4898251436
 20
-552.089710531
 10
459.4185258468
 20
-549.3063831993
 10
455.6239700013
 20
-546.395651513
 10
452.1180937263
 20
-543.3666748993
 10
448.9119315936
 20
-540.2289804098
 10
446.0155698709
 20
-536.9924418108
 10
443.4381188629
 20
-533.6672453677
 10
441.1876957892
 20
-530.2638495479
 10
439.2713707836
 20
-526.7929660114
 10
437.6951787481
 20
-523.26551171
 10
436.4640772056
 20
-519.6925906388
 10
435.5819436663
 20
-516.0854375714
 10
435.0515519195
 20
-512.4554104564
 10
434.8745667659
 20
-508.8139204661
 10
435.0515519195
 20
-505.1724304757
 10
435.5819436663
 20
-501.5424033607
 10
436.4640772056
 20
-497.9352502934
 10
437.6951787481
 20
-494.3623292222
 10
439.2713707836
 20
-490.8348749208
 10
441.1876957892
 20
-487.3639913843
 10
443.4381188629
 20
-483.9605955644
 10
446.0155698709
 20
-480.6353991214
 10
448.9119315936
 20
-477.3988605223
 10
452.1180937263
 20
-474.2611660329
 10
455.6239700013
 20
-471.2321894192
 10
459.4185258468
 20
-468.3214577329
 10
463.4898251436
 20
-465.5381304012
 10
467.8250572254
 20
-462.8909653926
  0
LWPOLYLINE
  5
DA
330
1F
100
AcDbEntity
  8
0
  6
Continuous
 62
     7
370
    25
100
AcDbPolyline
 90
      106
 70
   128
 43
0.0
 10
477.3002851683
 20
-468.3608980533
 10
473.2349756631
 20
-470.8525624591
 10
469.4350674971
 20
-473.4801192674
 10
465.9141612608
 20
-476.2341598497
 10
462.6848618254
 20
-479.1048284978
 10
459.7587312567
 20
-482.0818496061
 10
457.1462443638
 20
-485.1545654986
 10
454.8567485273
 20
-488.3119717845
 10
452.8984426265
 20
-491.5427721029
 10
451.2783335748
 20
-494.8353971308
 10
450.0022297348
 20
-498.1780631296
 10
449.0746908687
 20
-501.5588008382
 10
448.4990413092
 20
-504.9655147787
 10
448.2773383494
 20
-508.3860015054
 10
448.410380145
 20
-511.8080180348
 10
448.8976899101
 20
-515.2193183421
 10
449.7375132818
 20
-518.6076913779
 10
450.9268604683
 20
-521.9610036477
 10
452.4614614669
 20
-525.2672524353
 10
454.3358266506
 20
-528.5146007782
 10
456.5432494021
 20
-531.6914276507
 10
459.0758192848
 20
-534.7863598974
 10
461.9244786776
 20
-537.7883170935
 10
465.0790293601
 20
-540.686551843
 10
468.5281746599
 20
-543.4706923575
 10
472.2595681845
 20
-546.1307705887
 10
476.2598600844
 20
-548.6572611008
 10
480.5147149981
 20
-551.0411279265
 10
485.0089154436
 20
-553.2738295091
 10
489.7263680749
 20
-555.3473770585
 10
494.6501868231
 20
-557.2543460515
 10
499.7627496956
 20
-558.9879090213
 10
505.0457425697
 20
-560.5418669216
 10
510.480265218
 20
-561.9106495066
 10
516.0468629186
 20
-563.0893579103
 10
521.7256002123
 20
-564.0737768114
 10
527.4961544154
 20
-564.8603797563
 10
533.337870938
 20
-565.4463489275
 10
539.2298370408
 20
-565.8295873093
 10
545.1509529577
 20
-566.0087293321
 10
551.080034629
 20
-565.9831271871
 10
556.9958505796
 20
-565.7528721148
 10
562.8772220184
 20
-565.3187913644
 10
568.7031018627
 20
-564.6824390695
 10
574.4526274226
 20
-563.8460901652
 10
580.1052231334
 20
-562.8127419092
 10
585.6406506054
 20
-561.5860910711
 10
591.0390981856
 20
-560.1705308913
 10
596.2812336413
 20
-558.5711267504
 10
601.3482989908
 20
-556.7936040034
 10
606.2221486988
 20
-554.8443259298
 10
610.885341214
 20
-552.7302713039
 10
615.3211834208
 20
-550.4590087334
 10
619.5137932015
 20
-548.0386666254
 10
623.448161668
 20
-545.4779094267
 10
627.1102084804
 20
-542.7859056886
 10
630.4868230051
 20
-539.9722921416
 10
633.5659163409
 20
-537.047137579
 10
636.3364657695
 20
-534.0209171953
 10
638.7885536108
 20
-530.9044597429
 10
640.9134054177
 20
-527.7089254822
 10
642.7034110499
 20
-524.445751437
 10
644.1521668206
 20
-521.1266209809
 10
645.254480765
 20
-517.7634121347
 10
646.0064121525
 20
-514.3681686729
 10
646.4052688534
 20
-510.9530408176
 10
646.4496178748
 20
-507.5302548249
 10
646.1393011659
 20
-504.1120673642
 10
645.4754408866
 20
-500.710707733
 10
644.4604025289
 20
-497.338356567
 10
643.0978186241
 20
-494.0070865336
 10
641.3925703043
 20
-490.7288212739
 10
639.3507662281
 20
-487.5152928232
 10
636.9797083373
 20
-484.3780096773
 10
634.2878826362
 20
-481.328202808
 10
631.2849381191
 20
-478.3767830844
 10
627.9816130126
 20
-475.5343230246
 10
624.3897341176
 20
-472.8109955882
 10
620.522162479
 20
-470.2165488953
 10
616.3927365865
 20
-467.760273437
 10
612.0162524536
 20
-465.4509540784
 10
607.4083625306
 20
-463.2968664477
 10
602.5855671441
 20
-461.3057172489
 10
597.5651333311
 20
-459.4846339027
 10
592.365027503
 20
-457.8401378394
 10
587.0038667129
 20
-456.3781163661
 10
581.5008448991
 20
-455.1037983363
 10
575.875663079
 20
-454.0217503478
 10
570.1484516412
 20
-453.1358440483
 10
564.3397150275
 20
-452.4492485322
 10
558.4702448051
 20
-451.9644288193
 10
552.5610590806
 20
-451.68311088
 10
546.6333103034
 20
-451.6063074862
 10
540.7082115093
 20
-451.7342938806
 10
534.8069704657
 20
-452.0666092978
 10
528.9507264512
 20
-452.6020660877
 10
523.1604317179
 20
-453.3387451538
 10
517.4568198811
 20
-454.2740142016
 10
511.8603031864
 20
-455.4045201347
 10
506.3909224602
 20
-456.7262179479
 10
501.068245694
 20
-458.2343745292
 10
495.9113351173
 20
-459.9235937504
 10
490.9386523666
 20
-461.7878286332
 10
486.1679972416
 20
-463.8204045388
 10
481.6164421792
 20
-466.0140448301
 10
477.3002851683
 20
-468.3608980533
  0
LWPOLYLINE
  5
DB
330
1F
100
AcDbEntity
  8
0
  6
Continuous
 62
     7
370
    25
100
AcDbPolyline
 90
      113
 70
   128
 43
0.0
 10
568.9413316556
 20
-126.0773734117
 10
572.2204302267
 20
-127.9709486141
 10
575.7395129532
 20
-130.0030740273
 10
579.4875057508
 20
-132.1673183594
 10
583.4526022333
 20
-134.4568884167
 10
587.6223322021
 20
-136.8646078144
 10
591.9835774506
 20
-139.3828531001
 10
596.5226086427
 20
-142.0037453908
 10
601.2251643387
 20
-144.7190134921
 10
606.0764299214
 20
-147.5201155725
 10
611.0611482315
 20
-150.3982300389
 10
616.1636248363
 20
-153.3443437521
 10
621.3678281284
 20
-156.3491273115
 10
626.6573629836
 20
-159.403163192
 10
632.0155919336
 20
-162.496821029
 10
637.4256615072
 20
-165.6204188378
 10
642.8705443777
 20
-168.7640648356
 10
648.3331183879
 20
-171.9178734091
 10
653.7961849893
 20
-175.0719757635
 10
659.2425535362
 20
-178.2163982444
 10
664.6551018714
 20
-181.3412676651
 10
670.0167842287
 20
-184.4367428561
 10
675.3107313322
 20
-187.4930967977
 10
680.5203070303
 20
-190.5006763141
 10
685.629099077
 20
-193.4500792522
 10
690.6210468887
 20
-196.3319849021
 10
695.4804323251
 20
-199.1373311762
 10
700.191973861
 20
-201.8572838112
 10
704.7408377812
 20
-204.4833036624
 10
709.1127270845
 20
-207.0071250297
 10
713.2938716052
 20
-209.4208107826
 10
717.2711235023
 20
-211.7167466573
 10
721.031961869
 20
-213.8877169147
 10
724.5645671485
 20
-215.9268864683
 10
727.8578099386
 20
-217.8278795832
 10
730.9013471392
 20
-219.58465288
 10
733.6855811227
 20
-221.1917150963
 10
736.2017558814
 20
-222.6440000901
 10
738.4419715152
 20
-223.9369482047
 10
740.3991578904
 20
-225.0664667143
 10
742.0671668354
 20
-226.0290560608
 10
743.4407484334
 20
-226.821625816
 10
744.5155931692
 20
-227.441689352
 10
745.2883082215
 20
-227.8873501509
 10
745.7564543413
 20
-228.1571527474
 10
745.9185669258
 20
-228.2502774027
 10
745.7741402126
 20
-228.1663849679
 10
745.3236220122
 20
-227.9058085089
 10
744.5684295122
 20
-227.469319087
 10
743.5109440096
 20
-226.858305218
 10
742.1544951055
 20
-226.074678575
 10
740.5033448999
 20
-225.1209378561
 10
738.5626879919
 20
-224.0000349456
 10
736.3386251377
 20
-222.7155422083
 10
733.8381579827
 20
-221.2714791002
 10
731.0691627191
 20
-219.6723699624
 10
728.0403532078
 20
-217.9232835586
 10
724.7612441
 20
-216.029690104
 10
721.2421613734
 20
-213.9975890256
 10
717.4941685759
 20
-211.8333446936
 10
713.5290826301
 20
-209.5437442188
 10
709.3593473929
 20
-207.1360521972
 10
704.9980968761
 20
-204.617785618
 10
700.4590604156
 20
-201.9968963687
 10
695.7565099879
 20
-199.281625226
 10
690.9052444053
 20
-196.4805474805
 10
685.9205313636
 20
-193.602405638
 10
680.8180494904
 20
-190.6563193009
 10
675.6138514666
 20
-187.6515327001
 10
670.3243166114
 20
-184.5974968196
 10
664.9660823931
 20
-181.5038176892
 10
659.5560075511
 20
-178.3802472565
 10
654.111129949
 20
-175.2365982174
 10
648.6485612072
 20
-172.0827622678
 10
643.1854946057
 20
-168.9286842482
 10
637.7391207905
 20
-165.7842404738
 10
632.3265777237
 20
-162.6593923465
 10
626.9648953663
 20
-159.5639171555
 10
621.6709377262
 20
-156.5075692966
 10
616.4613672964
 20
-153.499962404
 10
611.3525752497
 20
-150.550559466
 10
606.3606327063
 20
-147.6686751095
 10
601.5012472699
 20
-144.8633288355
 10
596.7897057341
 20
-142.1433518656
 10
592.2408365455
 20
-139.5173350558
 10
587.8689525106
 20
-136.9935106471
 10
583.6878079898
 20
-134.5798492291
 10
579.7105560927
 20
-132.2839133543
 10
575.9497124577
 20
-130.1129218035
 10
572.4171071782
 20
-128.0737522499
 10
569.1238591197
 20
-126.1727865111
 10
566.0803324558
 20
-124.4160071316
 10
563.2960984723
 20
-122.8089449153
 10
560.7799184453
 20
-121.356638628
 10
558.5397080798
 20
-120.063711807
 10
556.5825217046
 20
-118.9341689626
 10
554.9145074913
 20
-117.9716069922
 10
553.5409206249
 20
-117.1790402783
 10
552.4660811574
 20
-116.5589493662
 10
551.6933713736
 20
-116.1133098607
 10
551.2252252537
 20
-115.8435072642
 10
551.0631074009
 20
-115.7503856503
 10
551.2075393824
 20
-115.834250709
 10
551.6580523145
 20
-116.0948545441
 10
552.4132448145
 20
-116.5313196312
 10
553.4707250487
 20
-117.1423365415
 10
554.8271792212
 20
-117.9259601432
 10
556.4783346951
 20
-118.8797221556
 10
558.4189968715
 20
-120.0005976898
 10
560.643049189
 20
-121.2851208446
 10
563.143516344
 20
-122.7291839528
 10
565.9125116076
 20
-124.3282687558
 10
568.9413316556
 20
-126.0773734117
  0
LWPOLYLINE
  5
DC
330
1F
100
AcDbEntity
  8
0
  6
Continuous
 62
     7
370
    25
100
AcDbPolyline
 90
      106
 70
   128
 43
0.0
 10
578.4165595985
 20
-131.5473060723
 10
575.5786805793
 20
-129.9084772743
 10
573.0018222614
 20
-128.4203345129
 10
570.6951831943
 20
-127.0881778098
 10
568.6670346971
 20
-125.9168205694
 10
566.9246418328
 20
-124.9104161862
 10
565.4742317983
 20
-124.0725857972
 10
564.3209939243
 20
-123.4063331086
 10
563.4690691386
 20
-122.9140200523
 10
562.9214920144
 20
-122.5974184939
 10
562.6802381852
 20
-122.4576889344
 10
562.7461611246
 20
-122.495295333
 10
563.1190342934
 20
-122.7101206904
 10
563.7975089923
 20
-123.1013697053
 10
564.7791617777
 20
-123.6676873998
 10
566.0604865585
 20
-124.4070207092
 10
567.6368893283
 20
-125.3167310249
 10
569.5027303119
 20
-126.3935394334
 10
571.6513213312
 20
-127.633628614
 10
574.0749811232
 20
-129.0325348472
 10
576.7650327054
 20
-130.5852499072
 10
579.7118428887
 20
-132.2862134556
 10
582.9048631072
 20
-134.1293426898
 10
586.3326676137
 20
-136.1080543934
 10
589.9829798214
 20
-138.2152436346
 10
593.8427315732
 20
-140.4433788205
 10
597.8981146724
 20
-142.7844645235
 10
602.1346040968
 20
-145.2301583008
 10
606.5370350481
 20
-147.7716691688
 10
611.0896513549
 20
-150.3999133024
 10
615.7761517358
 20
-153.1054738206
 10
620.579767672
 20
-155.8786700799
 10
625.4832966639
 20
-158.7095951212
 10
630.4691819149
 20
-161.5881069219
 10
635.5195860884
 20
-164.5038709789
 10
640.616422918
 20
-167.4464698093
 10
645.7414454526
 20
-170.4053626444
 10
650.8763066422
 20
-173.3699751617
 10
656.0026330949
 20
-176.3296873158
 10
661.1020698583
 20
-179.2739078589
 10
666.1563620786
 20
-182.1920971555
 10
671.1474129527
 20
-185.0737763063
 10
676.0573627535
 20
-187.9086822811
 10
680.8686309769
 20
-190.6866097406
 10
685.5639900986
 20
-193.3976848059
 10
690.1266445993
 20
-196.0321369173
 10
694.5402520387
 20
-198.5805604344
 10
698.7890126168
 20
-201.0338385905
 10
702.8577165897
 20
-203.3831952073
 10
706.7318074896
 20
-205.6201764429
 10
710.3974084667
 20
-207.7368302637
 10
713.8413907775
 20
-209.7255756457
 10
717.0514475424
 20
-211.5792330008
 10
720.0160674034
 20
-213.291240144
 10
722.724650428
 20
-214.8554272057
 10
725.1674975728
 20
-216.266193058
 10
727.3358528299
 20
-217.518517488
 10
729.221971716
 20
-218.6078912429
 10
730.8190896618
 20
-219.5304072821
 10
732.1214905011
 20
-220.2828125004
 10
733.1245275437
 20
-220.8623495536
 10
733.8245866975
 20
-221.2669789171
 10
734.2191760299
 20
-221.4952480958
 10
734.3068836217
 20
-221.5463402974
 10
734.0873828347
 20
-221.4200653087
 10
733.5614849956
 20
-221.1168899286
 10
732.731044566
 20
-220.6378710428
 10
731.5990434353
 20
-219.9847651437
 10
730.169543506
 20
-219.1598792848
 10
728.4476498151
 20
-218.1661714649
 10
726.4395342419
 20
-217.0072156565
 10
724.1523907264
 20
-215.6871272846
 10
721.5943878548
 20
-214.2106575287
 10
718.774697835
 20
-212.5830762223
 10
715.7034029833
 20
-210.8102395354
 10
712.3915115299
 20
-208.8984531013
 10
708.8508733245
 20
-206.8546058601
 10
705.094158105
 20
-204.6859750079
 10
701.1348169721
 20
-202.4003376005
 10
696.9870255904
 20
-200.0058647589
 10
692.6656326568
 20
-197.5111649261
 10
688.1860956926
 20
-194.9251372914
 10
683.5644672141
 20
-192.2570368193
 10
678.8172924934
 20
-189.516403051
 10
673.9615422227
 20
-186.7130820671
 10
669.0146270015
 20
-183.857113189
 10
663.9942340184
 20
-180.9586833468
 10
658.9183415382
 20
-178.028171955
 10
653.8051201212
 20
-175.0761060487
 10
648.6728773046
 20
-172.113031006
 10
643.5399917486
 20
-169.1495211968
 10
638.4248105031
 20
-166.1962423424
 10
633.345677984
 20
-163.2637370723
 10
628.3207621171
 20
-160.3625070484
 10
623.3680438017
 20
-157.5029338824
 10
618.5052615927
 20
-154.6952593624
 10
613.7498063335
 20
-151.9495246181
 10
609.1187316925
 20
-149.275588373
 10
604.6286013813
 20
-146.6829778901
 10
600.2954786176
 20
-144.1809923939
 10
596.1348787098
 20
-141.7786026937
 10
592.1617005691
 20
-139.4843994648
 10
588.3901687567
 20
-137.3066084591
 10
584.8337808008
 20
-135.2530114141
 10
581.5052755865
 20
-133.3309278008
 10
578.4165595985
 20
-131.5473060723
  0
LWPOLYLINE
  5
DD
330
1F
100
AcDbEntity
  8
0
  6
Continuous
 62
     1
370
    25
100
AcDbPolyline
 90
       15
 70
   128
 43
0.0
 10
626.9240787777
 20
-339.2658957085
 10
631.2593108595
 20
-341.9130607171
 10
635.3306101564
 20
-344.6963880487
 10
639.1251660019
 20
-347.6071197351
 10
642.6310422769
 20
-350.6360963488
 10
645.8372044096
 20
-353.7737908382
 10
648.7335661323
 20
-357.0103294373
 10
651.3110171403
 20
-360.3355258803
 10
653.561440214
 20
-363.7389217002
 10
655.4777652195
 20
-367.2098052367
 10
657.0539572551
 20
-370.7372595381
 10
658.2850587976
 20
-374.3101806093
 10
659.1671923369
 20
-377.9173336766
 10
659.6975840836
 20
-381.5473607916
 10
659.8745692372
 20
-385.188850782
  0
LWPOLYLINE
  5
DE
330
1F
100
AcDbEntity
  8
0
  6
Continuous
 62
     1
370
    25
100
AcDbPolyline
 90
       43
 70
   128
 43
0.0
 10
434.8745667659
 20
-385.188850782
 10
435.0515519195
 20
-381.5473607916
 10
435.5819436663
 20
-377.9173336766
 10
436.4640772056
 20
-374.3101806093
 10
437.6951787481
 20
-370.7372595381
 10
439.2713707836
 20
-367.2098052367
 10
441.1876957892
 20
-363.7389217002
 10
443.4381188629
 20
-360.3355258803
 10
446.0155698709
 20
-357.0103294373
 10
448.9119315936
 20
-353.7737908382
 10
452.1180937263
 20
-350.6360963488
 10
455.6239700013
 20
-347.6071197351
 10
459.4185258468
 20
-344.6963880487
 10
463.4898251436
 20
-341.9130607171
 10
467.8250572254
 20
-339.2658957085
 10
472.4105783671
 20
-336.7632194986
 10
477.2319651269
 20
-334.4129084424
 10
482.2740466149
 20
-332.2223579799
 10
487.5209565183
 20
-330.1984586863
 10
492.9561917118
 20
-328.3475806841
 10
498.5626484773
 20
-326.6755466518
 10
504.3226817734
 20
-325.1876158564
 10
510.2181750405
 20
-323.888474269
 10
516.2305731288
 20
-322.7822033909
 10
522.3409652739
 20
-321.8722870969
 10
528.5301167081
 20
-321.1615873041
 10
534.778566124
 20
-320.6523424514
 10
541.0666388458
 20
-320.3461538134
 10
547.3745680016
 20
-320.243982459
 10
553.6824971574
 20
-320.3461538134
 10
559.9705698792
 20
-320.6523424514
 10
566.219019295
 20
-321.1615873041
 10
572.4081707292
 20
-321.8722870969
 10
578.5185628744
 20
-322.7822033909
 10
584.5309609626
 20
-323.888474269
 10
590.4264542298
 20
-325.1876158564
 10
596.1864875258
 20
-326.6755466518
 10
601.7929442914
 20
-328.3475806841
 10
607.2281794848
 20
-330.1984586863
 10
612.4750893882
 20
-332.2223579799
 10
617.5171708762
 20
-334.4129084424
 10
622.338557636
 20
-336.7632194986
 10
626.9240787777
 20
-339.2658957085
  0
LWPOLYLINE
  5
DF
330
1F
100
AcDbEntity
  8
0
  6
Continuous
 62
     1
370
    25
100
AcDbPolyline
 90
       19
 70
   128
 43
0.0
 10
626.9240787777
 20
-339.2658957085
 10
631.295968081
 20
-341.7897049084
 10
635.4771126018
 20
-344.2033784939
 10
639.4543644989
 20
-346.4993143686
 10
643.2152081339
 20
-348.6702937521
 10
646.7478081451
 20
-350.7094785144
 10
650.0410562035
 20
-352.6104442532
 10
653.0845881358
 20
-354.3672205914
 10
655.8688168509
 20
-355.974285849
 10
658.3850021463
 20
-357.4265769275
 10
660.6252125117
 20
-358.719515916
 10
662.5823988869
 20
-359.849046593
 10
664.2504131003
 20
-360.8116207308
 10
665.6239946984
 20
-361.604190486
 10
666.6988394341
 20
-362.2242783568
 10
667.471549218
 20
-362.6699178623
 10
667.9396953379
 20
-362.9397204588
 10
668.1018131907
 20
-363.0328420727
 10
668.1019396312
 20
-363.0329075337
  0
LWPOLYLINE
  5
E0
330
1F
100
AcDbEntity
  8
0
  6
Continuous
 62
     1
370
    25
100
AcDbPolyline
 90
       40
 70
   128
 43
0.0
 10
473.2462206398
 20
-250.5328886609
 10
473.390780379
 20
-250.6168305877
 10
473.8412975916
 20
-250.8774076169
 10
474.5964879513
 20
-251.3138982744
 10
475.6539701611
 20
-251.9249140442
 10
477.0104248275
 20
-252.7085373608
 10
478.6615770088
 20
-253.662301274
 10
480.6022352339
 20
-254.7831790893
 10
482.8262967709
 20
-256.0676847543
 10
485.3267560234
 20
-257.5117524244
 10
488.0957526041
 20
-259.1108486346
 10
491.1245700179
 20
-260.8599426437
 10
494.4036764916
 20
-262.7535254515
 10
497.9227592181
 20
-264.7856386973
 10
501.6707467473
 20
-266.9498860707
 10
505.6358405957
 20
-269.2394698161
 10
509.8055731987
 20
-271.6471755258
 10
514.1668184471
 20
-274.1654329789
 10
518.7058549076
 20
-276.7863222282
 10
523.4084106036
 20
-279.5015903295
 10
528.2596709179
 20
-282.3026954512
 10
533.244389228
 20
-285.1808099176
 10
538.3468711012
 20
-288.1269084221
 10
543.5510691249
 20
-291.1316950228
 10
548.8406039802
 20
-294.1857309033
 10
554.1988381985
 20
-297.2794100338
 10
559.6089077721
 20
-300.4029835078
 10
565.0537906426
 20
-303.5466295056
 10
570.5163593844
 20
-306.7004532878
 10
575.9794259859
 20
-309.8545434748
 10
581.4257998011
 20
-312.9989750818
 10
586.8383375996
 20
-316.1238384178
 10
592.2000252253
 20
-319.2193105674
 10
597.4939775971
 20
-322.2756614677
 10
602.7035480269
 20
-325.2832683603
 10
607.8123453419
 20
-328.2326560896
 10
612.8042878852
 20
-331.1145526134
 10
617.6636733217
 20
-333.9198988875
 10
622.3752148575
 20
-336.6398636899
 10
626.9240787777
 20
-339.2658957085
  0
ENDSEC
  0
SECTION
  2
OBJECTS
  0
DICTIONARY
  5
C
330
0
100
AcDbDictionary
281
     1
  3
ACAD_GROUP
350
D
  3
ACAD_LAYOUT
350
1A
  3
ACAD_MLINESTYLE
350
17
  3
ACAD_PLOTSETTINGS
350
19
  3
ACAD_PLOTSTYLENAME
350
E
  3
ACAD_SCALELIST
350
47
  0
DICTIONARY
  5
D
102
{ACAD_REACTORS
330
C
102
}
330
C
100
AcDbDictionary
281
     1
  0
DICTIONARY
  5
1A
102
{ACAD_REACTORS
330
C
102
}
330
C
100
AcDbDictionary
281
     1
  3
Layout1
350
1E
  3
Layout2
350
26
  3
Model
350
22
  0
DICTIONARY
  5
17
102
{ACAD_REACTORS
330
C
102
}
330
C
100
AcDbDictionary
281
     1
  3
Standard
350
18
  0
DICTIONARY
  5
19
102
{ACAD_REACTORS
330
C
102
}
330
C
100
AcDbDictionary
281
     1
  0
ACDBDICTIONARYWDFLT
  5
E
102
{ACAD_REACTORS
330
C
102
}
330
C
100
AcDbDictionary
281
     1
  3
Normal
350
F
100
AcDbDictionaryWithDefault
340
F
  0
DICTIONARY
  5
47
102
{ACAD_REACTORS
330
C
102
}
330
C
100
AcDbDictionary
281
     1
  3
A0
350
48
  3
A1
350
49
  3
A2
350
4A
  3
A3
350
4B
  3
A4
350
4C
  3
A5
350
4D
  3
A6
350
4E
  3
A7
350
4F
  3
A8
350
50
  3
A9
350
51
  3
B0
350
52
  3
B1
350
53
  3
B2
350
54
  3
B3
350
55
  3
B4
350
56
  3
B5
350
57
  3
B6
350
58
  3
B7
350
59
  3
B8
350
5A
  3
B9
350
5B
  3
C0
350
5C
  3
C1
350
5D
  3
C2
350
5E
  3
C3
350
5F
  3
C4
350
60
  3
C5
350
61
  3
C6
350
62
  3
C7
350
63
  3
C8
350
64
  3
C9
350
65
  3
D0
350
66
  3
D1
350
67
  3
D2
350
68
  0
LAYOUT
  5
1E
102
{ACAD_REACTORS
330
1A
102
}
330
1A
100
AcDbPlotSettings
  1

  2
none_device
  4

  6

 40
0.0
 41
0.0
 42
0.0
 43
0.0
 44
0.0
 45
0.0
 46
0.0
 47
0.0
 48
0.0
 49
0.0
140
0.0
141
0.0
142
1.0
143
1.0
 70
   688
 72
     1
 73
     0
 74
     5
  7

 75
    16
147
1.0
148
0.0
149
0.0
100
AcDbLayout
  1
Layout1
 70
     1
 71
     1
 10
0.0
 20
0.0
 11
420.0
 21
297.0
 12
0.0
 22
0.0
 32
0.0
 14
1.0000000000E+20
 24
1.0000000000E+20
 34
1.0000000000E+20
 15
-1.0000000000E+20
 25
-1.0000000000E+20
 35
-1.0000000000E+20
146
0.0
 13
0.0
 23
0.0
 33
0.0
 16
1.0
 26
0.0
 36
0.0
 17
0.0
 27
1.0
 37
0.0
 76
     0
330
1B
  0
LAYOUT
  5
26
102
{ACAD_REACTORS
330
1A
102
}
330
1A
100
AcDbPlotSettings
  1

  2
none_device
  4

  6

 40
0.0
 41
0.0
 42
0.0
 43
0.0
 44
0.0
 45
0.0
 46
0.0
 47
0.0
 48
0.0
 49
0.0
140
0.0
141
0.0
142
1.0
143
1.0
 70
   688
 72
     1
 73
     0
 74
     5
  7

 75
    16
147
1.0
148
0.0
149
0.0
100
AcDbLayout
  1
Layout2
 70
     1
 71
     2
 10
0.0
 20
0.0
 11
0.0
 21
0.0
 12
0.0
 22
0.0
 32
0.0
 14
0.0
 24
0.0
 34
0.0
 15
0.0
 25
0.0
 35
0.0
146
0.0
 13
0.0
 23
0.0
 33
0.0
 16
1.0
 26
0.0
 36
0.0
 17
0.0
 27
1.0
 37
0.0
 76
     0
330
23
  0
LAYOUT
  5
22
102
{ACAD_REACTORS
330
1A
102
}
330
1A
100
AcDbPlotSettings
  1

  2
none_device
  4
Letter_(8.50_x_11.00_Inches)
  6

 40
6.35
 41
6.35
 42
6.35000508
 43
6.35000508
 44
215.9
 45
279.4
 46
0.0
 47
0.0
 48
0.0
 49
0.0
140
0.0
141
0.0
142
1.0
143
1.0
 70
  1712
 72
     1
 73
     0
 74
     0
  7

 75
     0
147
1.0
148
0.0
149
0.0
100
AcDbLayout
  1
Model
 70
     1
 71
     0
 10
0.0
 20
0.0
 11
279.4
 21
215.9
 12
0.0
 22
0.0
 32
0.0
 14
0.0
 24
0.0
 34
0.0
 15
279.4
 25
215.9
 35
0.0
146
0.0
 13
0.0
 23
0.0
 33
0.0
 16
1.0
 26
0.0
 36
0.0
 17
0.0
 27
1.0
 37
0.0
 76
     0
330
1F
331
29
  0
MLINESTYLE
  5
18
102
{ACAD_REACTORS
330
17
102
}
330
17
100
AcDbMlineStyle
  2
Standard
 70
     0
  3

 62
   256
 51
90.0
 52
90.0
 71
     2
 49
0.5
 62
   256
  6
BYLAYER
 49
-0.5
 62
   256
  6
BYLAYER
  0
ACDBPLACEHOLDER
  5
F
102
{ACAD_REACTORS
330
E
102
}
330
E
  0
SCALE
  5
48
102
{ACAD_REACTORS
330
47
102
}
330
47
100
AcDbScale
 70
     0
300
1:1
140
1.0
141
1.0
290
     1
  0
SCALE
  5
49
102
{ACAD_REACTORS
330
47
102
}
330
47
100
AcDbScale
 70
     0
300
1:2
140
1.0
141
2.0
290
     0
  0
SCALE
  5
4A
102
{ACAD_REACTORS
330
47
102
}
330
47
100
AcDbScale
 70
     0
300
1:4
140
1.0
141
4.0
290
     0
  0
SCALE
  5
4B
102
{ACAD_REACTORS
330
47
102
}
330
47
100
AcDbScale
 70
     0
300
1:5
140
1.0
141
5.0
290
     0
  0
SCALE
  5
4C
102
{ACAD_REACTORS
330
47
102
}
330
47
100
AcDbScale
 70
     0
300
1:8
140
1.0
141
8.0
290
     0
  0
SCALE
  5
4D
102
{ACAD_REACTORS
330
47
102
}
330
47
100
AcDbScale
 70
     0
300
1:10
140
1.0
141
10.0
290
     0
  0
SCALE
  5
4E
102
{ACAD_REACTORS
330
47
102
}
330
47
100
AcDbScale
 70
     0
300
1:16
140
1.0
141
16.0
290
     0
  0
SCALE
  5
4F
102
{ACAD_REACTORS
330
47
102
}
330
47
100
AcDbScale
 70
     0
300
1:20
140
1.0
141
20.0
290
     0
  0
SCALE
  5
50
102
{ACAD_REACTORS
330
47
102
}
330
47
100
AcDbScale
 70
     0
300
1:30
140
1.0
141
30.0
290
     0
  0
SCALE
  5
51
102
{ACAD_REACTORS
330
47
102
}
330
47
100
AcDbScale
 70
     0
300
1:40
140
1.0
141
40.0
290
     0
  0
SCALE
  5
52
102
{ACAD_REACTORS
330
47
102
}
330
47
100
AcDbScale
 70
     0
300
1:50
140
1.0
141
50.0
290
     0
  0
SCALE
  5
53
102
{ACAD_REACTORS
330
47
102
}
330
47
100
AcDbScale
 70
     0
300
1:100
140
1.0
141
100.0
290
     0
  0
SCALE
  5
54
102
{ACAD_REACTORS
330
47
102
}
330
47
100
AcDbScale
 70
     0
300
2:1
140
2.0
141
1.0
290
     0
  0
SCALE
  5
55
102
{ACAD_REACTORS
330
47
102
}
330
47
100
AcDbScale
 70
     0
300
4:1
140
4.0
141
1.0
290
     0
  0
SCALE
  5
56
102
{ACAD_REACTORS
330
47
102
}
330
47
100
AcDbScale
 70
     0
300
8:1
140
8.0
141
1.0
290
     0
  0
SCALE
  5
57
102
{ACAD_REACTORS
330
47
102
}
330
47
100
AcDbScale
 70
     0
300
10:1
140
10.0
141
1.0
290
     0
  0
SCALE
  5
58
102
{ACAD_REACTORS
330
47
102
}
330
47
100
AcDbScale
 70
     0
300
100:1
140
100.0
141
1.0
290
     0
  0
SCALE
  5
59
102
{ACAD_REACTORS
330
47
102
}
330
47
100
AcDbScale
 70
     0
300
1/128" = 1'-0"
140
0.0078125
141
12.0
290
     0
  0
SCALE
  5
5A
102
{ACAD_REACTORS
330
47
102
}
330
47
100
AcDbScale
 70
     0
300
1/64" = 1'-0"
140
0.015625
141
12.0
290
     0
  0
SCALE
  5
5B
102
{ACAD_REACTORS
330
47
102
}
330
47
100
AcDbScale
 70
     0
300
1/32" = 1'-0"
140
0.03125
141
12.0
290
     0
  0
SCALE
  5
5C
102
{ACAD_REACTORS
330
47
102
}
330
47
100
AcDbScale
 70
     0
300
1/16" = 1'-0"
140
0.0625
141
12.0
290
     0
  0
SCALE
  5
5D
102
{ACAD_REACTORS
330
47
102
}
330
47
100
AcDbScale
 70
     0
300
3/32" = 1'-0"
140
0.09375
141
12.0
290
     0
  0
SCALE
  5
5E
102
{ACAD_REACTORS
330
47
102
}
330
47
100
AcDbScale
 70
     0
300
1/8" = 1'-0"
140
0.125
141
12.0
290
     0
  0
SCALE
  5
5F
102
{ACAD_REACTORS
330
47
102
}
330
47
100
AcDbScale
 70
     0
300
3/16" = 1'-0"
140
0.1875
141
12.0
290
     0
  0
SCALE
  5
60
102
{ACAD_REACTORS
330
47
102
}
330
47
100
AcDbScale
 70
     0
300
1/4" = 1'-0"
140
0.25
141
12.0
290
     0
  0
SCALE
  5
61
102
{ACAD_REACTORS
330
47
102
}
330
47
100
AcDbScale
 70
     0
300
3/8" = 1'-0"
140
0.375
141
12.0
290
     0
  0
SCALE
  5
62
102
{ACAD_REACTORS
330
47
102
}
330
47
100
AcDbScale
 70
     0
300
1/2" = 1'-0"
140
0.5
141
12.0
290
     0
  0
SCALE
  5
63
102
{ACAD_REACTORS
330
47
102
}
330
47
100
AcDbScale
 70
     0
300
3/4" = 1'-0"
140
0.75
141
12.0
290
     0
  0
SCALE
  5
64
102
{ACAD_REACTORS
330
47
102
}
330
47
100
AcDbScale
 70
     0
300
1" = 1'-0"
140
1.0
141
12.0
290
     0
  0
SCALE
  5
65
102
{ACAD_REACTORS
330
47
102
}
330
47
100
AcDbScale
 70
     0
300
1-1/2" = 1'-0"
140
1.5
141
12.0
290
     0
  0
SCALE
  5
66
102
{ACAD_REACTORS
330
47
102
}
330
47
100
AcDbScale
 70
     0
300
3" = 1'-0"
140
3.0
141
12.0
290
     0
  0
SCALE
  5
67
102
{ACAD_REACTORS
330
47
102
}
330
47
100
AcDbScale
 70
     0
300
6" = 1'-0"
140
6.0
141
12.0
290
     0
  0
SCALE
  5
68
102
{ACAD_REACTORS
330
47
102
}
330
47
100
AcDbScale
 70
     0
300
1'-0" = 1'-0"
140
12.0
141
12.0
290
     0
  0
ENDSEC
  0
EOF
